Song name
# A B C D E F G H I J K L M N O P Q R S T U V W X Y Z

Sufjan Stevens - Flint tab

-------------------------------------------------------------------------------
			     Sufjan Stevens - Flint
-------------------------------------------------------------------------------
Tabbed by:Vincent
Email:v_oude_lansink@hotmail.com

Tuning: normal
Piano arranged for guitar

The Main Theme
e|---------------------------------------------------------------------------|
B|---------------------------------------------------------------------------|
G|---------------------------------------------------------------------------|
D|---5--8--7-\(8)-10--7-\-7----\---------------------------------------------|
A|-----------\-7--------\-8----\--5---------x2-------------------------------|
E|---6-------\-8--------\---8--\-(6)-----------------------------------------|
     Bb        C          F       Bb


e|---------------------------------------------------------------------------|
B|---------------------------------------------------------------------------|
G|---------------------------------------------------------------------------|
D|--5--------\---------\----7--\---------------------------------------------|
A|------8--5-\--s/8-7--\--8-8--\------------x2-------------------------------|
E|--6--------\------8--\-------\--6------------------------------------------|
    Bb         C          F       Bb

This was the main theme, In the rest of the song it's just Sufjan sings over these chords:

Bb (658xxx)
C  (8710xxx)
F  (x8710xx)
Bb (658xxx)

This is the whole songstructure so you can play and sing along. You can also just play 
if you want to. Maybe this will help you.
Greetings
Tap to rate this tab
# A B C D E F G H I J K L M N O P Q R S T U V W X Y Z