Song name
# A B C D E F G H I J K L M N O P Q R S T U V W X Y Z

Sufjan Stevens - For The Windows In Paradise For The Fatherless In Ypsilanti tab

This is a loose tab, so get comfortable with your own style of playing it, you can add 
take away, just do whatever sounds and feels right.

Guitar 1:

e|---------------------------------------------------------------------------|
B|---------4p3---------------------------------------------------------------|
G|---5-----------3---3/5--5----------8---7h8p7-3-----------------------------|
D|-------------------------5-------8---8-------------------------------------|
A|--3--3-3-----3---3--------5-0--6-------------------------------------------|
E|---------------------------------------------------------------------------|


Guitar 2:

e|-3---3--3------------------------------------------------------------------|
B|-4---4--4----3---3--3------------------------3-3-3-3/4---------------------|
G|-5---5--5----3---3--3----------8---8--8------3-3-3-3/5---------------------|
D|-5---5--5----3---3--3----------8---8--8------3-3-3-3/5---------------------|
A|-3---3--3----5---5--5----------6---6--6------1-1-1-1/3---------------------|
E|---------------------------------------------------------------------------|


Then a cheap way to play the horn solo:

e|---------------------------------------------------------------------------|
B|---------------------------------------------------------------------------|
G|------8--7-------3-5------------8--7-----3-----5(let-ring)-----------------|
D|--------------------5------------------------------------------------------|
A|---------------------------------------------------------------------------|
E|---------------------------------------------------------------------------|
Tap to rate this tab
 
# A B C D E F G H I J K L M N O P Q R S T U V W X Y Z