Song name
# A B C D E F G H I J K L M N O P Q R S T U V W X Y Z

Sufjan Stevens - Opies Funeral Song tab

Help us improve GuitareTab! Take a short survey!
Opie’s Funeral Song
By: Sufjan Stevens
Album: Mews Too: An Asthmatic Kitty Compilation
Tabbed by: Dishmon


This song is awesome, and very easy to play.
It has only one riff and it is played throughout the whole song.
I am sure that this is 100% correct.

Standard Tuning
Capo 4th Fret

Chords:

  Asus2   D6add9   G
e|--0-------0------3--|
B|--0-------0------3--|
G|--2-------2------0--|
D|--2-------0------0--|
A|--0-------0------2--|
E|--x-------2------3--|

The song goes like this:

e|----0-0-0-0----0-0-0-0----3-3-3-3-----------------|
B|----0-0-0-0----0-0-0-0----3-3-3-3-----------------|
G|----2-2-2-2----2-2-2-2----0-0-0-0-----------------|
D|----2-2-2-2----0-0-0-0----0-0-0-0-------0h2p0-0---|
A|--0-0-0-0-0----0-0-0-0----2-2-2-2-0h2p0-----------|
E|----x-x-x-x--2-2-2-2-2--3-3-3-3-3-----------------|
Related for Opies Funeral Song tab