Song name
# A B C D E F G H I J K L M N O P Q R S T U V W X Y Z

Sugar Ray - Under The Sun tab

Figured this out on my own so discriminations are welcome.


(Acoustic Intro)

E|--1111-------------|
A|--2222-44-44-44-22-|
D|--3333-55-55-55-33-|
G|--3333-66-66-66-33-|
B|-------66-66-66----|
E|-------------------|(x2)

E|------------------------------|
A|------------------------------|
D|-4/6-4--3-4---------2/3-2/3-1-|
G|------------1--1-4------------|
B|------------------------------|
E|------------------------------|

E|--------------------------------|
A|-----------------------1--------|
D|-4/6-4--3-4--------2/3---2p3-1--|
G|------------1--1-4--------------|
B|--------------------------------|
E|--------------------------------|

E|---------------|
A|---------------|
D|-4/6-4--3-4----|
G|------------1--|
B|---------------|
E|---------------|

(Acoustic Continues)

That's all i could figure with my current level of boredom
Tap to rate this tab
# A B C D E F G H I J K L M N O P Q R S T U V W X Y Z