Song name
# A B C D E F G H I J K L M N O P Q R S T U V W X Y Z

Sugar Ray - Boardwalk tab

Standard Tuning

There's a capo on the 3rd fret

Intro/Chorus
|---------5--5-5-5-5-5-5-5-5-5-|
|-5--5-5--6--6-6-6-6-6-6-6-6-6-|
|-5--5-5--5--5-5-5-5-5-5-5-5-5-|
|-5--5-5-----------------------|
|------------------------------|
|------------------------------|

1st Verse
|--------5----------------5----------------5----------------5---------|
|--------6----------------6---6p5p0--------6---6p5p0--------6---------|
|--9--5--5---5h6p5--9--5--5----------9--5--5----------9--5--5---------|
|-10--5------------10--5------------10--5------------10--5------------|
|---------------------------------------------------------------------|
|---------------------------------------------------------------------|

2nd Verse
|---------5-5-5-----------5-5-5-----------5-5-5---7-7---------------------|
|---------6-6-6-----------6-6-6-----------6-6-6---8-8---------------------|
|--9---9--5-5-5----9---9--5-5-5----9---9--5-5-5---7-7----8h10-10p8--------|
|-10--10----------10--10----------10--10----------------9---------10p9----|
|-----------------------------------------------------10--------------9p8-|
|-------------------------------------------------------------------------|

Bridge
|-0-0-0-0-0-0-0-0-----------------5-5-5-5-5-5-5-5-----------------|
|-5-5-5-5-5-5-5-5-5-5-5-5-5-5-5-5-6-6-6-6-6-6-6-6-5-5-5-5-5-5-5-5-|
|-0-0-0-0-0-0-0-0-5-5-5-5-5-5-5-5-5-5-5-5-5-5-5-5-5-5-5-5-5-5-5-5-|
|-6-6-6-6-6-6-6-6-5-5-5-5-5-5-5-5-----------------5-5-5-5-5-5-5-5-|
|-7-7-7-7-7-7-7-7-------------------------------------------------|
|-----------------------------------------------------------------|

|-0-0-0-0-0-0-0-0-----------------5-5-5-5-5-5-5-5-5-5-5-5-5-5-5-5-|
|-5-5-5-5-5-5-5-5-5-5-5-5-5-5-5-5-6-6-6-6-6-6-6-6-6-6-6-6-6-6-6-6-|
|-0-0-0-0-0-0-0-0-5-5-5-5-5-5-5-5-5-5-5-5-5-5-5-5-5-5-5-5-5-5-5-5-|
|-6-6-6-6-6-6-6-6-5-5-5-5-5-5-5-5---------------------------------|
|-7-7-7-7-7-7-7-7-------------------------------------------------|
|-----------------------------------------------------------------|
Tap to rate this tab
# A B C D E F G H I J K L M N O P Q R S T U V W X Y Z