Song name
# A B C D E F G H I J K L M N O P Q R S T U V W X Y Z

Sugar Ray - Love Is The Answer tab

-------------------------------------------------------------------------------
			     Love Is The Answer - Sugar Ray
-------------------------------------------------------------------------------


Tabbed by:Sugar-Ray-tabs
Email:drums-barker@hotmail.fr

Tuning:standard

intro:lead guitar
e|-----------------------------------------------------------------------------------|
B|-----------------------------------------------------------------------------------|
G|-----------------------------------------------------------------------------------|
D|10\ 5--3-5-10-8--------------------------------------------------------------------|
A|-----------------------------------------------------------------------------------|
E|-----------------------------------------------------------------------------------|

intro:chords
e|------------------------------------------------------------------------------|
B|------------------------------------------------------------------------------|
G|-8-8-8-8-8-8-8-8-8-8-8-8-8-8-8-8----------------------------------------------|
D|-5-5-5-5-5-5-5-5-6-6-6-6-6-6-6-6----------------------------------------------|
A|------------------------------------------------------------------------------|
E|------------------------------------------------------------------------------|

verse1:lead guitar
e|------------------------------------------------------------------------------|
B|------------------------------------------------------------------------------|
G|------------------------------------------------------------------------------|
D|10\ 5-------------------------------------------------------------------------|
A|------------------------------------------------------------------------------|
E|------------------------------------------------------------------------------|

verse1:chords
e|------------------------------------------------------------------------------|
B|------------------------------------------------------------------------------|
G|-8-8-8-8-8-8-8-8-8-8-8-8-8-8-8-8----------------------------------------------|
D|-5-5-5-5-5-5-5-5-6-6-6-6-6-6-6-6----------------------------------------------|
A|------------------------------------------------------------------------------|
E|------------------------------------------------------------------------------|

chorus(chords)
e|------------------------------------------------------------------------------|
B|8--8--8-8-11-11-11-11---------------------------------------------------------|
G|8--8--8-8-8--8---8--8---------------------------------------------------------|
D|------------------------------------------------------------------------------|
A|------------------------------------------------------------------------------|
E|------------------------------------------------------------------------------|

intro:lead guitar
e|-----------------------------------------------------------------------------------|
B|-----------------------------------------------------------------------------------|
G|-----------------------------------------------------------------------------------|
D|10\ 5--3-5-10-8--------------------------------------------------------------------|
A|-----------------------------------------------------------------------------------|
E|-----------------------------------------------------------------------------------|

intro:chords
e|------------------------------------------------------------------------------|
B|------------------------------------------------------------------------------|
G|-8-8-8-8-8-8-8-8-8-8-8-8-8-8-8-8----------------------------------------------|
D|-5-5-5-5-5-5-5-5-6-6-6-6-6-6-6-6----------------------------------------------|
A|------------------------------------------------------------------------------|
E|------------------------------------------------------------------------------|

verse2:lead guitar
e|-------------------------------------------------------------------------------------|
B|-------------------------------------------------------------------------------------|
G|---------8---------------------------------------------------------------------------|
D|3-5-8-10---10-8-5--------------------------------------------------------------------|
A|-------------------------------------------------------------------------------------|
E|-------------------------------------------------------------------------------------|

chorus(chords)
e|------------------------------------------------------------------------------|
B|8--8--8-8-11-11-11-11---------------------------------------------------------|
G|8--8--8-8-8--8---8--8---------------------------------------------------------|
D|------------------------------------------------------------------------------|
A|------------------------------------------------------------------------------|
E|------------------------------------------------------------------------------|

intro:lead guitar
e|-----------------------------------------------------------------------------------|
B|-----------------------------------------------------------------------------------|
G|-----------------------------------------------------------------------------------|
D|10\ 5--3-5-10-8--------------------------------------------------------------------|
A|-----------------------------------------------------------------------------------|
E|-----------------------------------------------------------------------------------|

intro:chords
e|------------------------------------------------------------------------------|
B|------------------------------------------------------------------------------|
G|-8-8-8-8-8-8-8-8-8-8-8-8-8-8-8-8----------------------------------------------|
D|-5-5-5-5-5-5-5-5-6-6-6-6-6-6-6-6----------------------------------------------|
A|------------------------------------------------------------------------------|
E|------------------------------------------------------------------------------|


piano
e|---------------------------------------------------------------------------------|
B|---------------------------------------------------------------------------------|
G|-8-8--8-8-8-8--8-8--8-8-8-8------------------------------------------------------|
D|-5-5--5-5-5-5--6-6--6-6-6-6------------------------------------------------------|
A|---------------------------------------------------------------------------------|
E|---------------------------------------------------------------------------------|

solo
e|---------------------------------------------------------------------------|
B|---------------------------------------------------------------------------|
G|---------------------------17--15-15-17-12--12p10h12p10h12-10\8------------|
D|-5--5-3-5--3-5-8-10-8-13/15------------------------------------------------|
A|---------------------------------------------------------------------------|
E|---------------------------------------------------------------------------|


e|-----------------------------------------------------------------------------|
B|-----------------------------------15-15-15-15-13-11--11-11-11-11-8-11-------|
G|-15--15p12h15p10-8--15--15-17-12---------------------------------------------|
D|-----------------------------------------------------------------------------|
A|-----------------------------------------------------------------------------|
E|-----------------------------------------------------------------------------|


chorus(chords)
e|------------------------------------------------------------------------------|
B|8--8--8-8-11-11-11-11---------------------------------------------------------|
G|8--8--8-8-8--8---8--8---------------------------------------------------------|
D|------------------------------------------------------------------------------|
A|------------------------------------------------------------------------------|
E|------------------------------------------------------------------------------|

solo 2
e|------------------------------------------------------------------------------------------|
B|---------------------------------------11-------------------------------------------------|
G|8--8--8-8-13-12-8-8--8-8-8--8-8-8--8-8----13-12-8--8--8--8-8-13-12-8---10--10-8-8-10-8-8--|
D|------------------------------------------------------------------------------------------|
A|------------------------------------------------------------------------------------------|
E|------------------------------------------------------------------------------------------|

e|------------------------------------------------------------------------------------|
B|-11/13--11--11-13-8--11/13--11--11-13-8--11/13--11--11-13-8-------------------------|
G|------------------------------------------------------------10-10-10-10-8-8-12-8-8--|
D|------------------------------------------------------------------------------------|
A|------------------------------------------------------------------------------------|
E|------------------------------------------------------------------------------------|

************************************

| /   slide up
| \   slide down
| h   hammer-on
| p   pull-off
| ~   vibrato
| +   harmonic
| x   Mute note
| b   Bend
| pb  Pre-bend
| br  Bend release
| pbr Pre-bend release
| brb Bend release bend

************************************
Tap to rate this tab
 
# A B C D E F G H I J K L M N O P Q R S T U V W X Y Z