Song name
# A B C D E F G H I J K L M N O P Q R S T U V W X Y Z

Sugar Ray - American Pig tab

Sugar Ray
"American Pig"
Tuning-Drop Db

Gain 10        }
Treble 10      }Just a starting point
Bass 5         }
Contour 7.5    }


eb|-------------------------|
Bb|-------------------------|
Gb|-------------------------|  X4
Db|-------------------------|         }play this part whenever and it seems to fit
Ab|-0-0-0----1-1-1----------|
Db|-0-0-0----1-1-1----------|


eb|----------------------------------------|
Bb|-10/11/10---------10-11------10---------|
Gb|-----------11-12---------12-------12-11-| X2
Db|----------------------------------------|
Ab|----------------------------------------|
Db|----------------------------------------|

eb|------------------------------------------|
Bb|------------------------------------------|
Gb|------------------------------------------|
Db|------------------------------------------|
Ab|---------6---5-----3--------3-----3--5--3-|
Db|----0----6---5-----3-----0--3--0--3--5--3-|
Tap to rate this tab
# A B C D E F G H I J K L M N O P Q R S T U V W X Y Z