Song name
# A B C D E F G H I J K L M N O P Q R S T U V W X Y Z

Sugar Ray - Stand And Deliver chords

Highlighted       Show chord diagrams
Tuning: Standard tuning
Song: Stand and deliver 
Artist: Sugar Ray
Album: Floored

INRTO:
e|-------------------------------------|
B|-------------------------------------|
G|-------------------------------------|
D|--2-2-2---0-0------------------------|
A|-------------------3-1-3-------------|
E|-----------------------------3--1----|

OUTRO RIFF: 
|---------------------------------------------------|
|---------------------------------------------------|
|-5-------------------------------------------------|
|-5----------5------------3-----------3-------------|
|-3333333333-5------------3-----------3-------------|
|------------333333333333-111111111111111111111111--|
pm:*********  ***********  *********** ***********

CHORD CHART:
    C     G    FM    AM    pC1     pC2    pC3    pC4
e|--3--|--2--|--1--|--0--|------|------|------|------|
B|--3--|--2--|--1--|--1--|------|------|------|------|
G|--0--|--0--|--2--|--2--|--12--|------|------|--14--|
D|--2--|--0--|--3--|--2--|--12--|--12--|--10--|--14--|
A|--3--|--2--|--3--|--0--|--10--|--12--|--10--|--12--|
E|-----|--3--|--1--|-----|------|--10--|--8---|------|



pC1                           pC2                
I'm the dandy highway man and your too scared to mention
pC3                                  pC3
I spend my cash on looking flash and grabbing your attention
pC1                            pC2
The devil take your stereo your record collection
pC3                             pC3
The way you look you qualify for next years old age pension

C         G              FM              FM
Stand and deliver, money your life
C          G             FM              FM 
Cry in the mirror, money your life

C                            G
I'm the dandy highway man so sick of easy fashion
FM                                FM
The clumsy boots peek a boo roots that people think so dashing
C                                  G
So whats the point of robbery when nothing is worth taking
FM                                     FM
Its kind of tough to tell a scruff the big mistake he's making

C         G              FM              FM       
Stand and deliver, money your life
C          G       FM              FM
Cry in the mirror, money your life

C               G
Even though you fool your soul
AM                      FM
Your conscience will be mine, mine

pC1                           pC4
Were the dandy highway men so tired of excuses
   pC3                              pC3
Of deep meaning philosophies where only showbiz looses
pC1                             pC4
We're the dandy highway men and heres your invitation
   pC3                                 pC3
To free yourself for the other one and join our insect nation

C         G              FM              FM       
Stand and deliver, money your life
C          G       FM              FM
Cry in the mirror, money your life

C               G
Even though you fool your soul
AM                      FM
Your conscience will be mine, mine


OUTRO RIFF: 
La diddly la qua qua
La diddly la qua qua
La diddly la qua qua

outro riff still playing...
Stand and deliver, money your life
Stand and deliver, money your life
Stand and deliver, money your life

THE END

SUGAR RAY - FLOORED
thanks for looking and learing... :)
tabbed by: H l R E D
Tap to rate this tab
 
# A B C D E F G H I J K L M N O P Q R S T U V W X Y Z