Song name
# A B C D E F G H I J K L M N O P Q R S T U V W X Y Z

Sugar Ray - Answer The Phone tab

~ = Let Ring
X = Palm Mute

Intro: 

eb|------------------------------------------------------------------|
Bb|------------------------------------------------------------------|
Gb|-----9-------9-------9-------9-------9-------9-------9-------9----|
Db|---7---7---7---7---7---7---7---9---7---7---7---7---7---7---7---7--|
Ab|-0~~~~~~~~~------7~~~~~~~~~------9~~~~~~~~~------5~~~~~~~~~-------|
Eb|------------------------------------------------------------------|

pre-verse

eb--------------------------------------------------------------------------|
Bb--------------------------------------------------------------------------|
Gb-----------------99999999999999-11-11-11-11-11-11-11-11-11--77777777777777|
Db-77777777777777--99999999999999-11-11-11-11-11-11-11-11-11--77777777777777|
Ab-77777777777777--77777777777777--9-9-9-9-9-9-9-9-9-9-9-9-9--55555555555555|
Eb-55555555555555-----------------------------------------------------------|

verse (FIRST TIME ONLY BASS, ANS SECOND TIME COMES THE GUITAR)

eb|------------------------------------------------------------------|
Bb|------------------------------------------------------------------|
Gb|-------------------------------------------------------7777777----|
Db|-------------------------------------------------------7777777----|
Ab|----------------77777777777777--99999999999999--55555555555555----|
Eb|-55555555555555-XXXXXXXXXXXXXX--XXXXXXXXXXXXXX--XXXXXXX-----------|
   XXXXXXXXXXXXXX 

Chorus x2

eb--------------------------------------------------------------------------|
Bb--------------------------------------------------------------------------|
Gb-----------------99999999999999-11-11-11-11-11-11-11-11-11--77777777777777|
Db-77777777777777--99999999999999-11-11-11-11-11-11-11-11-11--77777777777777|
Ab-77777777777777--77777777777777--9-9-9-9-9-9-9-9-9-9-9-9-9--55555555555555|
Eb-55555555555555-----------------------------------------------------------|

verse (FIRST TIME ONLY BASS, ANS SECOND TIME COMES THE GUITAR)

eb|------------------------------------------------------------------|
Bb|------------------------------------------------------------------|
Gb|-------------------------------------------------------7777777----|
Db|-------------------------------------------------------7777777----|
Ab|----------------77777777777777--99999999999999--55555555555555----|
Eb|-55555555555555-XXXXXXXXXXXXXX--XXXXXXXXXXXXXX--XXXXXXX-----------|
   XXXXXXXXXXXXXX 

Chorus x2

eb--------------------------------------------------------------------------|
Bb--------------------------------------------------------------------------|
Gb-----------------99999999999999-11-11-11-11-11-11-11-11-11--99999999999999|
Db-77777777777777--99999999999999-11-11-11-11-11-11-11-11-11--99999999999999|
Ab-77777777777777--77777777777777--9-9-9-9-9-9-9-9-9-9-9-9-9--77777777777777|
Eb-55555555555555-----------------------------------------------------------|

Bridge

eb------------------------------|
Bb------------------------------|
Gb---9--99--9--99--9--99--9--99-|
Db--7--7---7--7---7--7---7--7---|
Ab-0--0---7--7---9--9---5--5----|
Eb------------------------------|

Intro: 

eb|------------------------------------------------------------------|
Bb|------------------------------------------------------------------|
Gb|-----9-------9-------9-------9-------9-------9-------9-------9----|
Db|---7---7---7---7---7---7---7---9---7---7---7---7---7---7---7---7--|
Ab|-0~~~~~~~~~------7~~~~~~~~~------9~~~~~~~~~------5~~~~~~~~~-------|
Eb|------------------------------------------------------------------|

pre-Chorus 

eb--------------------------------------------------------------------------|
Bb--------------------------------------------------------------------------|
Gb-----------------------------------------------------------77777777777777-|
Db-----------77777777777777--22222222222222--44444444444444--77777777777777-|
Ab-----------77777777777777--22222222222222--44444444444444--55555555555555-|
Eb-PickSlide-55555555555555--00000000000000--22222222222222-----------------|

Chorus x3

eb--------------------------------------------------------------------------|
Bb--------------------------------------------------------------------------|
Gb-----------------99999999999999-11-11-11-11-11-11-11-11-11--99999999999999|
Db-77777777777777--99999999999999-11-11-11-11-11-11-11-11-11--99999999999999|
Ab-77777777777777--77777777777777--9-9-9-9-9-9-9-9-9-9-9-9-9--77777777777777|
Eb-55555555555555-----------------------------------------------------------|

End Note

Db-7~-|
Ab-7~-|
Eb-5~-|

tabbed by Matias*
Tap to rate this tab
# A B C D E F G H I J K L M N O P Q R S T U V W X Y Z