Song name
# A B C D E F G H I J K L M N O P Q R S T U V W X Y Z

Sugar Ray - Someday tab

this is actually really simple and its pretty great when you put it all together
  main riff (repeated throughout song)
e|-----------------------------------------|
B|-----------------------7-5-4h5p4---------|
G|-4-----4-----4-------6-----------6-4-----|
D|---6-----6-------4-7---------------------|
A|-----7-----7-----------------------------|
E|-----------------------------------------|
  electric guitar riff
e|--------------------------------------5/7\5-|
B|-4--------------5/7\5--4--------------5/7\5-|
G|---4------------4/6\4----4------------------|
D|-----6------4-7------------6------4-7-------|
A|-------7---------------------7--------------|
E|--------------------------------------------|
Tap to rate this tab
# A B C D E F G H I J K L M N O P Q R S T U V W X Y Z