Song name
# A B C D E F G H I J K L M N O P Q R S T U V W X Y Z

Sugar Ray - Every Morning tab

This song has 2 guitars in it, but one just keeps playing the same chord progression
over and over again except for the bridge.

The chords for the Guitar 2 are:
 
G# - 466544
Eb - x68886
C# - x46664

 
For Guitar 1 I'm just going to tab out the parts because there's only 3.
The rest of the song it just plays the chord progression with Guitar 2.
I'll leave you to figure out the order.
 

[Part 1]:
e|--------------------------------------------------|
B|--------------------------------------------------|
G|-6/8-8-10-8-10-8-----6-8-6-8-6-----5-6-5----------|
D|-6/8-8-8--8-8--8-----6-6-6-6-6-----5-5-6----------|
A|--------------------------------------------------|
E|--------------------------------------------------|

e|--------------------------------------------------|
B|-2/4-4-4-4-----4h6----4p2/1-----------------------|
G|-3/5-5-5-5-----5----------------------------------|
D|--------------------------------------------------|
A|--------------------------------------------------|
E|--------------------------------------------------|
 

[Part 2]:
e|--11-----11-10-9-----9-10-11-----11-10-9----------|
B|--11-----11-10-9-----9-10-11-----11-10-9----------|
G|--------------------------------------------------|            *Repeat as needed
D|--------------------------------------------------|
A|--------------------------------------------------|
E|--------------------------------------------------|




[Bridge]: Played by both guitars.
It's all palm muted except for when you hit the first note of each chord.

The Chords are:

C# - x4664x
Eb - x68886x
G# - 4665xx
Fm - 1331xx
 

That is all.
Tap to rate this tab
 
# A B C D E F G H I J K L M N O P Q R S T U V W X Y Z