Song name
# A B C D E F G H I J K L M N O P Q R S T U V W X Y Z

Sugar Ray - Rhyme Stealer tab

Rhyme Stealer- Sugar Ray
CD: Lemonade & Brownies
Tabber: Mitchell (Mitchell_J@hotmail.com)
Tuning: Dropped D down half a step (Db Ab Db Gb Bb eb)

Main riff: Only palm mute the E flats
eb -----------------------------------------------------|-----------------------
Bb -----------------------------------------------------|------------------6h8--
Gb -----------------------------------------------------|--------------5h7------
Db -2-2-2-2-5~---2-2-2-2-5/7---2-2-2-2-5~---2-2-2-2-5/7-|-2-2------5h7----------
Ab -2-2-2-2-5~---2-2-2-2-5/7---2-2-2-2-5~---2-2-2-2-5/7-|-2-2--5h7--------------
Db -2-2-2-2-5~---2-2-2-2-5/7---2-2-2-2-5~---2-2-2-2-5/7-|-2-2-------------------

Pre-Chorus:
eb ------------------------------------------------------------
Bb -----------(stop)----------(stop)---------------------------
Gb -2---------------2----------------2-2----------2-2----------
Db -2-5-2-5-2!------2-5-2-5-2!-------2-2-5-2-5-2--2-2-5-2-5-2--
Ab -0-5-2-5-2!------0-5-2-5-2!-------0-0-5-2-5-2--0-0-5-2-5-2--
Db ---5-2-5-2!--------5-2-5-2!-----------5-2-5-2------5-2-5-2--

Chorus: "Rhyme stealer!" (again, palm mute the E5's)
eb -----------------|------------------------------------------------------
Bb -----------------|------------------------------------------------------
Gb -7-7-7-7-7-7-7-7-|------------------------------------------------------
Db -7-7-7-7-7-7-7-7-|-2-2-2-2-5~---2-2-2-2-5/7---2-2-2-2-5~---2-2-2-2-5/7--
Ab -5-5-5-5-5-5-5-5-|-2-2-2-2-5~---2-2-2-2-5/7---2-2-2-2-5~---2-2-2-2-5/7--
Db -----------------|-2-2-2-2-5~---2-2-2-2-5/7---2-2-2-2-5~---2-2-2-2-5/7--

Another part:
eb ------------------------------------------------------------
Bb ------------------------------------------------------------
Gb -9--------------9--------------9--------------9-------------
Db -9-8-7--5-7-5---9-8-7--5-7-5---9-8-7--5-7-5---9-8-7--5-7-5--
Ab -7-8-7--5-7-5---7-8-7--5-7-5---7-8-7--5-7-5---7-8-7--5-7-5--
Db ---8-7--5-7-5-----8-7--5-7-5-----8-7--5-7-5-----8-7--5-7-5--

The pre-chorus is the outro. And that's it!

Chords: D#5  F5 F#5  G5   G#5   A5  C#5  D#5
eb       x   x   x   x   x   x  x    x    x
Bb       x   x   x   x   x   x  x    x    x
Gb       x   x   x   x   x & 2  x    7    9
Db       2   4   5   6   7   2  8    7    9
Ab       2   4   5   6   7   0  8    5    7
Db       2   4   5   6   7   x  8    x    x

Tab originally from: http://diehardtabs.tripod.com
Tap to rate this tab
 
# A B C D E F G H I J K L M N O P Q R S T U V W X Y Z