Guitaretab - guitar tabs
Song name
# A B C D E F G H I J K L M N O P Q R S T U V W X Y Z
Home / S / Sugar / Helpless tab

Sugar - Helpless tab

Song: ďHelplessĒ
Artist: Sugar
Album: Copper Blue track 04
Notes: Capo 5th fret (all tab relative to capo)
Tabbed by: denabob

Intro Riff (x2):
|---------------------------------------------------------------------------|
|-------10---------10--------10-8-------------------------------------------|
|-7-9-11----7-9-11----7-9-11------7-----------------------------------------|
|-----------------------------------8-7-------------------------------------|
|---------------------------------------------------------------------------|
|---------------------------------------------------------------------------|

Rhythm Figure 1 (x2):
|-2-2-2-2--3-3-3-3--3-3-3-3--3-3-3-3---2-2-2-2--3-3-3-3--3-3-3-3--3-3-3-3---|
|-3-3-3-3--3-3-3-3--3-3-3-3--3-3-3-3---3-3-3-3--3-3-3-3--3-3-3-3--3-3-3-3---|
|-2-2-2-2--0-0-0-0--0-0-0-0--0-0-0-0---2-2-2-2--0-0-0-0--0-0-0-0--0-0-0-0---|
|----------0-0-0-0--0-0-0-0--0-0-0-0------------0-0-0-0--0-0-0-0--0-0-0-0---|
|----------3-3-3-3--0-0-0-0--1-1-1-1------------3-3-3-3--0-0-0-0--1-1-1-1---|
|-------------------3-3-3-3------------------------------3-3-3-3------------|
   Another time, time after time, you make me feel so helpless I
   Iíve never tried to change your mind, I keep it to myself itís

Rhythm Figure 2:
|-------------------3-3-3-3--3-3-3-3--------------------3-3-3-3--3-3-3-3----|
|-5-5-5-5--5-5-5-5--3-3-3-3--3-3-3-3--5-5-5-5--5-5-5-5--3-3-3-3--3-3-3-3----|
|-4-4-4-4--4-4-4-4--0-0-0-0--0-0-0-0--4-4-4-4--4-4-4-4--0-0-0-0--0-0-0-0----|
|-2-2-2-2--2-2-2-2--0-0-0-0--0-0-0-0--2-2-2-2--2-2-2-2--0-0-0-0--0-0-0-0----|
|-------------------0-0-0-0--0-0-0-0--------------------0-0-0-0--0-0-0-0----|
|-------------------3-3-3-3--3-3-3-3--------------------3-3-3-3--3-3-3-3----|
   Sometimes Iíve got to tell you, is it this time I tell you

|-------------------3-3-3-3--3-3-3-3--3-3---3-2-0---------------------------|
|-5-5-5-5--5-5-5-5--3-3-3-3--3-3-3-3--3-3-3-3-3-3-3-2-----------------------|
|-4-4-4-4--4-4-4-4--0-0-0-0--0-0-0-0--0-0-4-0-2-2-2-2-----------------------|
|-2-2-2-2--2-2-2-2--0-0-0-0--0-0-0-0--0-0---0-----2-2-----------------------|
|-------------------0-0-0-0--0-0-0-0--0-0-----------------------------------|
|-------------------3-3-3-3--3-3-3-3--3-3-----------------------------------|
   Weíve got to go to places, somewhere I donít mind itís special

Rhythm Figure 1 (x2):
|-2-2-2-2--3-3-3-3--3-3-3-3--3-3-3-3---2-2-2-2--3-3-3-3--3-3-3-3--3-3-3-3---|
|-3-3-3-3--3-3-3-3--3-3-3-3--3-3-3-3---3-3-3-3--3-3-3-3--3-3-3-3--3-3-3-3---|
|-2-2-2-2--0-0-0-0--0-0-0-0--0-0-0-0---2-2-2-2--0-0-0-0--0-0-0-0--0-0-0-0---|
|----------0-0-0-0--0-0-0-0--0-0-0-0------------0-0-0-0--0-0-0-0--0-0-0-0---|
|----------3-3-3-3--0-0-0-0--1-1-1-1------------3-3-3-3--0-0-0-0--1-1-1-1---|
|-------------------3-3-3-3------------------------------3-3-3-3------------|
  And now you find as time goes by, youíre left with nothing meaning much
  Meaning I will have to try, to take your mind to places

Rhythm Figure 2:
|-------------------3-3-3-3--3-3-3-3--------------------3-3-3-3--3-3-3-3----|
|-5-5-5-5--5-5-5-5--3-3-3-3--3-3-3-3--5-5-5-5--5-5-5-5--3-3-3-3--3-3-3-3----|
|-4-4-4-4--4-4-4-4--0-0-0-0--0-0-0-0--4-4-4-4--4-4-4-4--0-0-0-0--0-0-0-0----|
|-2-2-2-2--2-2-2-2--0-0-0-0--0-0-0-0--2-2-2-2--2-2-2-2--0-0-0-0--0-0-0-0----|
|-------------------0-0-0-0--0-0-0-0--------------------0-0-0-0--0-0-0-0----|
|-------------------3-3-3-3--3-3-3-3--------------------3-3-3-3--3-3-3-3----|
   I wish that I could help you, but you seem less than helpless
[ Tab from: http://www.guitaretab.com/s/sugar/121032.html ]
|-------------------3-3-3-3--3-3-3-3--3-3---3-2-0---------------------------|
|-5-5-5-5--5-5-5-5--3-3-3-3--3-3-3-3--3-3-3-3-3-3-3-2-----------------------|
|-4-4-4-4--4-4-4-4--0-0-0-0--0-0-0-0--0-0-4-0-2-2-2-2-----------------------|
|-2-2-2-2--2-2-2-2--0-0-0-0--0-0-0-0--0-0---0-----2-2-----------------------|
|-------------------0-0-0-0--0-0-0-0--0-0-----------------------------------|
|-------------------3-3-3-3--3-3-3-3--3-3-----------------------------------|
   I always tried to tell you, someday that itíd seem so special

Rhythm Figure 1 (x2):
|-2-2-2-2--3-3-3-3--3-3-3-3--3-3-3-3---2-2-2-2--3-3-3-3--3-3-3-3--3-3-3-3---|
|-3-3-3-3--3-3-3-3--3-3-3-3--3-3-3-3---3-3-3-3--3-3-3-3--3-3-3-3--3-3-3-3---|
|-2-2-2-2--0-0-0-0--0-0-0-0--0-0-0-0---2-2-2-2--0-0-0-0--0-0-0-0--0-0-0-0---|
|----------0-0-0-0--0-0-0-0--0-0-0-0------------0-0-0-0--0-0-0-0--0-0-0-0---|
|----------3-3-3-3--0-0-0-0--1-1-1-1------------3-3-3-3--0-0-0-0--1-1-1-1---|
|-------------------3-3-3-3------------------------------3-3-3-3------------|
   Time after time, whatís on your mind, you make me feel so helpless I
   You never tried whatís on your mind, you make me feel so helpless I

Intro Riff (x2):
|---------------------------------------------------------------------------|
|-------10---------10--------10-8-------------------------------------------|
|-7-9-11----7-9-11----7-9-11------7-----------------------------------------|
|-----------------------------------8-7-------------------------------------|
|---------------------------------------------------------------------------|
                         I feel so helpless IÖ

Rhythm Figure 2:
|-------------------3-3-3-3--3-3-3-3--------------------3-3-3-3--3-3-3-3----|
|-5-5-5-5--5-5-5-5--3-3-3-3--3-3-3-3--5-5-5-5--5-5-5-5--3-3-3-3--3-3-3-3----|
|-4-4-4-4--4-4-4-4--0-0-0-0--0-0-0-0--4-4-4-4--4-4-4-4--0-0-0-0--0-0-0-0----|
|-2-2-2-2--2-2-2-2--0-0-0-0--0-0-0-0--2-2-2-2--2-2-2-2--0-0-0-0--0-0-0-0----|
|-------------------0-0-0-0--0-0-0-0--------------------0-0-0-0--0-0-0-0----|
|-------------------3-3-3-3--3-3-3-3--------------------3-3-3-3--3-3-3-3----|
   Your left alone with something, and I hope for you itís one thing

|-------------------3-3-3-3--3-3-3-3--3-3---3-2-0---------------------------|
|-5-5-5-5--5-5-5-5--3-3-3-3--3-3-3-3--3-3-3-3-3-3-3-2-----------------------|
|-4-4-4-4--4-4-4-4--0-0-0-0--0-0-0-0--0-0-4-0-2-2-2-2-----------------------|
|-2-2-2-2--2-2-2-2--0-0-0-0--0-0-0-0--0-0---0-----2-2-----------------------|
|-------------------0-0-0-0--0-0-0-0--0-0-----------------------------------|
|-------------------3-3-3-3--3-3-3-3--3-3-----------------------------------|
   That something you and yours can hold and hold as something special

Rhythm Figure 1 (x2):
|-2-2-2-2--3-3-3-3--3-3-3-3--3-3-3-3---2-2-2-2--3-3-3-3--3-3-3-3--3-3-3-3---|
|-3-3-3-3--3-3-3-3--3-3-3-3--3-3-3-3---3-3-3-3--3-3-3-3--3-3-3-3--3-3-3-3---|
|-2-2-2-2--0-0-0-0--0-0-0-0--0-0-0-0---2-2-2-2--0-0-0-0--0-0-0-0--0-0-0-0---|
|----------0-0-0-0--0-0-0-0--0-0-0-0------------0-0-0-0--0-0-0-0--0-0-0-0---|
|----------3-3-3-3--0-0-0-0--1-1-1-1------------3-3-3-3--0-0-0-0--1-1-1-1---|
|-------------------3-3-3-3------------------------------3-3-3-3------------|
   But now you find, as time goes by, youíre left with nothing meaning much
   Meaning I will have to try, whatís on your mind so helpless I

Intro Riff (x2):
|---------------------------------------------------------------------------|
|-------10---------10--------10-8-------------------------------------------|
|-7-9-11----7-9-11----7-9-11------7-----------------------------------------|
|-----------------------------------8-7-------------------------------------|
|---------------------------------------------------------------------------|
|---------------------------------------------------------------------------|
                          I feel so helpless IÖ

End Riff
|-------------------------------------------------------------------------2-|
|----7------------------7------------------7------------------7-----------3-|
|7-9---9-7----------7-9---9-7----------7-9---9-7----------7-9---9-7-----0-2-|
|-----------7-7-5-7------------7-7-5-7------------7-7-5-7------------7-7----|
|---------------------------------------------------------------------------|
|---------------------------------------------------------------------------|


Related for Helpless tab