Song name
# A B C D E F G H I J K L M N O P Q R S T U V W X Y Z

Sugar - System Of A Down tab

Tuning: E B G D A E

Introduction

E----------------------------------------------------------------------|
B----------------------------------------------------------------------|
G----------------------------------------------------------------------|
D---0-7-6-5--0-7-6-5--0-7-6-5--0-7-6-5--0-7-6-5--0-7-6-5--0-7-6-5------|
A---0-7-6-5--0-7-6-5--0-7-6-5--0-7-6-5--0-7-6-5--0-7-6-5--0-7-6-5------|
E---0-7-6-5--0-7-6-5--0-7-6-5--0-7-6-5--0-7-6-5--0-7-6-5--0-7-6-5------|

Verse

E-----13-12-13-----10-10-----------------------------------------------|
B---10--------13-10----------------------------------------------------|
G----------------------------------------------------------------------|
D----------------------------------------------------------------------|
A----------------------------------------------------------------------|
E----------------------------------------------------------------------|

E-----13-12-13-----10-10-----------------------------------------------|
B---10--------13-10----------------------------------------------------|
G----------------------------------------------------------------------|
D----------------------------------------------------------------------|
A----------------------------------------------------------------------|
E----------------------------------------------------------------------|

E-----13-12-13-----10-10-----------------------------------------------|
B---10--------13-10----------------------------------------------------|
G----------------------------------------------------------------------|
D----------------------------------------------------------------------|
A----------------------------------------------------------------------|
E----------------------------------------------------------------------|

E-----13-12-13-----10-10-10-10-10-10-10-10-10-10-10-10-10-10-10-10-----|
B---10--------13-10----------------------------------------------------|
G----------------------------------------------------------------------|
D----------------------------------------------------------------------|
A----------------------------------------------------------------------|
E----------------------------------------------------------------------|

Chorus

E----------------------------------------------------------------------|
B----------------------------------------------------------------------|
G----------------------------------------------------------------------|
D---0-7-6-5--0-7-6-5--0-7-6-5--0-7-6-5--0-7-6-5--0-7-6-5--0-7-6-5------|
A---0-7-6-5--0-7-6-5--0-7-6-5--0-7-6-5--0-7-6-5--0-7-6-5--0-7-6-5------|
E---0-7-6-5--0-7-6-5--0-7-6-5--0-7-6-5--0-7-6-5--0-7-6-5--0-7-6-5------|




Verse

E-----13-12-13-----10-10-----------------------------------------------|
B---10--------13-10----------------------------------------------------|
G----------------------------------------------------------------------|
D----------------------------------------------------------------------|
A----------------------------------------------------------------------|
E----------------------------------------------------------------------|

E-----13-12-13-----10-10-----------------------------------------------|
B---10--------13-10----------------------------------------------------|
G----------------------------------------------------------------------|
D----------------------------------------------------------------------|
A----------------------------------------------------------------------|
E----------------------------------------------------------------------|

E-----13-12-13-----10-10-10-10-10-10-10-10-10-10-10-10-10-10-10-10-----|
B---10--------13-10----------------------------------------------------|
G----------------------------------------------------------------------|
D----------------------------------------------------------------------|
A----------------------------------------------------------------------|
E----------------------------------------------------------------------|

Chorus

E----------------------------------------------------------------------|
B----------------------------------------------------------------------|
G----------------------------------------------------------------------|
D---0-7-6-5--0-7-6-5--0-7-6-5--0-7-6-5--0-7-6-5--0-7-6-5--0-7-6-5------|
A---0-7-6-5--0-7-6-5--0-7-6-5--0-7-6-5--0-7-6-5--0-7-6-5--0-7-6-5------|
E---0-7-6-5--0-7-6-5--0-7-6-5--0-7-6-5--0-7-6-5--0-7-6-5--0-7-6-5------|


Bridge

E----------------------------------------------------------------------|
B----------------------------------------------------------------------|
G----------------------------------------------------------------------|
D---1----1-0----1----1-0----1----1-0----1------------------------------|
A---1----1-0----1----1-0----1----1-0----1------------------------------|
E---1----1-0----1----1-0----1----1-0----1------------------------------|

E----------------------------------------------------------------------|
B----------------------------------------------------------------------|
G----------------------------------------------------------------------|
D---1-0-0-0-1-0-1-0-0-0-1-0-1-0-0-0-1-0-1-0-0-0-1-0-1-0-0-0------------|
A---1-0-0-0-1-0-1-0-0-0-1-0-1-0-0-0-1-0-1-0-0-0-1-0-1-0-0-0------------|
E---1-0-0-0-1-0-1-0-0-0-1-0-1-0-0-0-1-0-1-0-0-0-1-0-1-0-0-0------------|

E----------------------------------------------------------------------|
B----------------------------------------------------------------------|
G----------------------------------------------------------------------|
D---1-0-0-0-1-0-1-0-0-0-1-0-1-0-0-0-1-0-1-0-0-0-1-0-1-0-0-0------------|
A---1-0-0-0-1-0-1-0-0-0-1-0-1-0-0-0-1-0-1-0-0-0-1-0-1-0-0-0------------|
E---1-0-0-0-1-0-1-0-0-0-1-0-1-0-0-0-1-0-1-0-0-0-1-0-1-0-0-0------------|

E----------------------------------------------------------------------|
B----------------------------------------------------------------------|
G----------------------------------------------------------------------|
D---1-0-0-0-1-0-1-0-0-0-1-0-1-0-0-0-1-0-1-0-0-0-1-0-1-0-0-0------------|
A---1-0-0-0-1-0-1-0-0-0-1-0-1-0-0-0-1-0-1-0-0-0-1-0-1-0-0-0------------|
E---1-0-0-0-1-0-1-0-0-0-1-0-1-0-0-0-1-0-1-0-0-0-1-0-1-0-0-0------------|


E----------------------------------------------------------------------|
B----------------------------------------------------------------------|
G----------------------------------------------------------------------|
D---1-0-0-0-1-0-1-0-0-0-1-0-1-0-0-0-1-0-1-0-0-0-1-0-1-0-0-0------------|
A---1-0-0-0-1-0-1-0-0-0-1-0-1-0-0-0-1-0-1-0-0-0-1-0-1-0-0-0------------|
E---1-0-0-0-1-0-1-0-0-0-1-0-1-0-0-0-1-0-1-0-0-0-1-0-1-0-0-0------------|

E----------------------------------------------------------------------|
B----------------------------------------------------------------------|
G----------------------------------------------------------------------|
D---1-0-0-0-1-0-1-0-0-0-1-0-1-0-0-0-1-0-1-0-0-0-1-0-1-0-0-0------------|
A---1-0-0-0-1-0-1-0-0-0-1-0-1-0-0-0-1-0-1-0-0-0-1-0-1-0-0-0------------|
E---1-0-0-0-1-0-1-0-0-0-1-0-1-0-0-0-1-0-1-0-0-0-1-0-1-0-0-0------------|

E----------------------------------------------------------------------|
B----------------------------------------------------------------------|
G----------------------------------------------------------------------|
D---1-0-0-0-1-0-1-0-0-0-1-0-1-0-0-0-1-0-1-0-0-0-1-0-1-0-0-0------------|
A---1-0-0-0-1-0-1-0-0-0-1-0-1-0-0-0-1-0-1-0-0-0-1-0-1-0-0-0------------|
E---1-0-0-0-1-0-1-0-0-0-1-0-1-0-0-0-1-0-1-0-0-0-1-0-1-0-0-0------------|

E----------------------------------------------------------------------|
B----------------------------------------------------------------------|
G----------------------------------------------------------------------|
D---1-0-0-0-1-0-1-0-0-0-1-0-1-0-0-0-1-0-1-0-0-0-1-0-1-0-0-0------------|
A---1-0-0-0-1-0-1-0-0-0-1-0-1-0-0-0-1-0-1-0-0-0-1-0-1-0-0-0------------|
E---1-0-0-0-1-0-1-0-0-0-1-0-1-0-0-0-1-0-1-0-0-0-1-0-1-0-0-0------------|

E----------------------------------------------------------------------|
B----------------------------------------------------------------------|
G----------------------------------------------------------------------|
D---1-0-0-0-1-0-1-0-0-0-1-0-1-0-0-0-1-0-1-0-0-0-1-0-1-0-0-0------------|
A---1-0-0-0-1-0-1-0-0-0-1-0-1-0-0-0-1-0-1-0-0-0-1-0-1-0-0-0------------|
E---1-0-0-0-1-0-1-0-0-0-1-0-1-0-0-0-1-0-1-0-0-0-1-0-1-0-0-0------------|
Tap to rate this tab
# A B C D E F G H I J K L M N O P Q R S T U V W X Y Z