Song name
# A B C D E F G H I J K L M N O P Q R S T U V W X Y Z

Sugarcoma - Shots tab

SHOTS - SUGARCOMA
TABBED BY LIAMLACEY

INTRO RIFF
E---------------|
B-5-5-5---5-5-3-|
G---------------|
D---------------| X4
A---------------|
D---------------|

CHORUS RIFF
E---------------------------------|
B---------------------------------|
G---------------------------------|
D-7-7-7-7-7-7-7-7-3-3-3-3-5-5-5-5-| X4
A-7-7-7-7-7-7-7-7-3-3-3-3-5-5-5-5-|
D-7-7-7-7-7-7-7-7-3-3-3-3-5-5-5-5-|

VERSE RIFF
E---|------------------|
B---|----5-5-5---5-5-3-|
G---|-.----------------|
D-7-|-.----------------| X4
A-7-|------------------|
D-7-|------------------|

CHORUS RIFF

BRIDGE
E---------------------------------|
B---------------------------------|
G---------------------------------|
D-7-7-7-7-7-7-7-7-3-3-3-3-5-5-5-5-|
A-7-7-7-7-7-7-7-7-3-3-3-3-5-5-5-5-| X3
D-7-7-7-7-7-7-7-7-3-3-3-3-5-5-5-5-|
PM  . . .   . . .   . . .   . . .

E---------------------------------|
B---------------------------------|
G---------------------------------|
D-7-7-7-7-7-7-7-7-3-3-3-3-5-5-5-5-|
A-7-7-7-7-7-7-7-7-3-3-3-3-5-5-5-5-|
D-7-7-7-7-7-7-7-7-3-3-3-3-5-5-5-5-|
PM  . . .   . . .

VERSE RIFF
CHORUS RIFF
BRIDGE

BREAKDOWN
E-----------------------------------|
B-----------------------------------|
G-----------------------------------|
D-7~~~~~~~~-------------------------|
A-7~~~~~~~~-(HOLD AND LET FEEDBACK)-
D-7~~~~~~~~-------------------------

E---------------------------------|
B---------------------------------|
G---------------------------------|
D-7-7-7-7-7-7-2-2-3-3-3-3-0-0-5-5-| X8
A-7-7-7-7-7-7-2-2-3-3-3-3-0-0-5-5-|
D-7-7-7-7-7-7-2-2-3-3-3-3-0-0-5-5-|

WAH PART OVER VERSE RIFF IN VERSE 3
E-0-0-0-0-12-12-12-12-|
B---------------------|
G---------------------|
D---------------------| X4
A---------------------|
D---------------------|

CHORUS
BRIDGE

OUTRO
E---------------------------------------------|
B----------------------5-5-5---5-5-3----------|
G---------------------------------------------|
D-7---2-3-0--5-7~~~---------------------------|
A-7---2-3-0--5-7~~~---------------------0~~~~-|
D-7---2-3-0--5-7~~~---------------------------|

PLEASE RATE. ANY COMMENTS LIAM.GUITARGOD@VIRGIN.NET
Tap to rate this tab
# A B C D E F G H I J K L M N O P Q R S T U V W X Y Z