Guitaretab - guitar tabs
Song name
# A B C D E F G H I J K L M N O P Q R S T U V W X Y Z

Sugarcubes - Im Hungry tab

#----------------------------------PLEASE NOTE---------------------------------#
#This file is the author's own work and represents their interpretation of the #
#song. You may only use this file for private study, scholarship, or research. #
From: (Phil Lossing)
Transcribed by John McGann

"I'm Hungry"
[ Tab from: ]
The Sugarcubes -- from the "Stick Around for Joy" CD

Play 4x:

E ------------------------------|
B ------------------------------|
G ------------------------------|
D ----2--2--2-1-2-1-----0--0----|
A ------------------2-----0--0--|
E -0----------------------------|


E ----0----|
B ----0----|
G ----0----|O
D ----2----|O
A ---------|
E -0-------|

If you can transcribe any Sugarcubes please send them in or E-mail me.
Comments are very welcome.
Related for Im Hungry tab