Song name
# A B C D E F G H I J K L M N O P Q R S T U V W X Y Z

Sugarcult - Champagne tab

Song: Champagne
Track: 7
Artist: Sugarcult
Album: Palm Trees And Power Lines

Tuning: Standard (EADGBe)
Distortion Level: 1. Lead Guitar - medium
                  2. Rhythm Guitar - heavy

INTRO
Rhythm Guitar
    PM PM PM PM PM PM PM PM    PM PM PM PM PM PM PM PM
e|--------------------------|--------------------------|
B|--------------------------|--------------------------|
G|--------------------------|--------------------------|
D|--------------------------|--4--4--4--4--4--4--4-----|
A|--4--4--4--4--4--4--4--2--|--2--2--2--2--2--2--2--2--|
E|--2--2--2--2--2--2--2--0--|-----------------------0--|

    PM PM PM PM PM PM PM PM    PM PM PM PM PM PM PM PM
e|--------------------------|--------------------------|
B|--------------------------|--------------------------|
G|--------------------------|--------------------------|
D|--------------------------|--4--4--4--4--4--4--4-----|
A|--4--4--4--4--4--4--4--2--|--2--2--2--2--2--2--2--2--|
E|--2--2--2--2--2--2--2--0--|-----------------------0--|

    PM PM PM PM PM PM PM PM    PM PM PM PM PM PM PM PM
e|--------------------------|--------------------------|
B|--------------------------|--------------------------|
G|--------------------------|--------------------------|
D|--------------------------|--4--4--4--4--4--4--4-----|
A|--4--4--4--4--4--4--4--2--|--2--2--2--2--2--2--2--2--|
E|--2--2--2--2--2--2--2--0--|-----------------------0--|

    PM PM PM PM PM PM PM PM    PM PM PM PM PM PM PM PM
e|--------------------------|--------------------------|
B|--------------------------|--------------------------|
G|--3--3--3--3--3--3--3--3--|--------------------------|
D|--1--1--1--1--1--1--1--1--|--6--6--6--6--6--6--6--6--|
A|--------------------------|--4--4--4--4--4--4--4--4--|
E|--------------------------|--------------------------|

    PM PM PM PM PM PM PM PM    PM PM PM PM PM
e|--------------------------|--------------------------|
B|--------------------------|--------------------------|
G|--------------------------|--------------------------|
D|--4--4--4--4--4--4--4--4--|--4--4--4--4--4--4--4--4--|
A|--2--2--2--2--2--2--2--2--|--2--2--2--2--2--4--4--4--|
E|--------------------------|-----------------2--2--2--|

VERSE
Rhythm Guitar
    PM PM PM PM PM PM PM PM    PM PM PM PM PM PM PM
e|--------------------------|--------------------------|
B|--------------------------|-----------------------0--|
G|--------------------------|-----------------------4--|
D|--------------------------|--4--4--4--4--4--4--4--4--|
A|--4--4--4--4--4--4--4--2--|--2--2--2--2--2--2--2--2--|
E|--2--2--2--2--2--2--2--0--|--------------------------|

    PM PM PM PM PM PM PM PM    PM PM PM PM PM PM PM
e|--------------------------|--------------------------|
B|--------------------------|-----------------------0--|
G|--------------------------|--3--3--3--3-----------4--|
D|--------------------------|--1--1--1--1--6--6--6--4--|
A|--4--4--4--4--4--4--4--2--|--------------4--4--4--2--|
E|--2--2--2--2--2--2--2--0--|--------------------------|

    PM PM PM PM PM PM PM PM    PM PM PM PM PM PM PM PM
e|--------------------------|--------------------------|
B|--------------------------|--------------------------|
G|--------------------------|--------------------------|
D|--------------------------|--4--4--4--4--4--4--4-----|
A|--4--4--4--4--4--4--4--2--|--2--2--2--2--2--2--2--2--|
E|--2--2--2--2--2--2--2--0--|-----------------------0--|

                    PM PM PM PM PM PM PM PM
e|-------------|----------------------------|
B|-------------|----------------------------|
G|--8-----8\6--|--6-------------------------|
D|--8-----8\6--|--6\4--4--4--4--4--4--4--4--|
A|--6-----6\4--|--4\2--2--2--2--2--2--2--2--|
E|-------------|----------------------------|

    PM  PM  PM  PM  PM
e|----------------------------------|
B|----------------------------------|
G|----------------------x--x--x--x--|
D|--4---4---4---4---4---x--x--x--x--|
A|--2---2---2---2---2---x--x--x--x--|
E|----------------------x--x--x--x--|

CHORUS
Lead Guitar
e|--6-------9--------|--6-------9--------|
B|------7---------7--|------7---------7--|
G|-------------------|-------------------|
D|-------------------|-------------------|
A|-------------------|-------------------|
E|-------------------|-------------------|

Rhythm Guitar
e|-------------------|-------------------|
B|-------------------|-------------------|
G|----------6-6-6-6--|--8-8-8-8---4-4-4--|
D|--4-4-4-4-6-6-6-6--|--8-8-8-8-x-4-4-4--|
A|--4-4-4-4-4-4-4-4--|--6-6-6-6-x-2-2-2--|
E|--2-2-2-2----------|----------x--------|

Lead Guitar
e|--6-------9--------|--6-------9--------|
B|------7---------7--|------7---------7--|
G|-------------------|-------------------|
D|-------------------|-------------------|
A|-------------------|-------------------|
E|-------------------|-------------------|

Rhythm Guitar
e|-------------------|-------------------|
B|-------------------|-------------------|
G|----------6-6-6-6--|--8-8-8-8---4-4-4--|
D|--4-4-4-4-6-6-6-6--|--8-8-8-8-x-4-4-4--|
A|--4-4-4-4-4-4-4-4--|--6-6-6-6-x-2-2-2--|
E|--2-2-2-2----------|----------x--------|

Lead Guitar
e|--6-------9--------|--6-------9--------|
B|------7---------7--|------7---------7--|
G|-------------------|-------------------|
D|-------------------|-------------------|
A|-------------------|-------------------|
E|-------------------|-------------------|

Rhythm Guitar
e|-------------------|-------------------|
B|-------------------|-------------------|
G|----------6-6-6-6--|--8-8-8-8-4-4-4-4--|
D|--4-4-4-4-6-6-6-6--|--8-8-8-8-4-4-4-4--|
A|--4-4-4-4-4-4-4-4--|--6-6-6-6-2-2-2-2--|
E|--2-2-2-2----------|-------------------|

Lead Guitar
e|--6-------9--------|--6-------9--------|
B|------7---------7--|------7---------7--|
G|-------------------|-------------------|
D|-------------------|-------------------|
A|-------------------|-------------------|
E|-------------------|-------------------|

Rhythm Guitar
e|-------------------|-------------------|
B|-------------------|-------------------|
G|----------6-6-6-6--|--8-8-8-8-4-4-4-4--|
D|--4-4-4-4-6-6-6-6--|--8-8-8-8-4-4-4-4--|
A|--4-4-4-4-4-4-4-4--|--6-6-6-6-2-2-2-2--|
E|--2-2-2-2----------|-------------------|

VERSE
Lead Guitar
e|--------------------------|-----2--------------------|
B|--------------------2-----|--------------------------|
G|--------------3-----------|--------------------------|
D|--------------------------|--------------------------|
A|--------------------------|--------------------------|
E|--------------------------|--------------------------|

Rhythm Guitar
    PM PM PM PM PM PM PM PM    PM PM PM PM PM PM PM
e|--------------------------|--------------------------|
B|--------------------------|-----------------------0--|
G|--------------------------|-----------------------4--|
D|--------------------------|--4--4--4--4--4--4--4--4--|
A|--4--4--4--4--4--4--4--2--|--2--2--2--2--2--2--2--2--|
E|--2--2--2--2--2--2--2--0--|--------------------------|

Lead Guitar
e|--------------------------|-----2--------------------|
B|--------------------2-----|--------------------------|
G|--------------3-----------|--------------------------|
D|--------------------------|--------------------------|
A|--------------------------|--------------------------|
E|--------------------------|--------------------------|

Rhythm Guitar
    PM PM PM PM PM PM PM PM    PM PM PM PM PM PM PM
e|--------------------------|--------------------------|
B|--------------------------|-----------------------0--|
G|--------------------------|--3--3--3--3-----------4--|
D|--------------------------|--1--1--1--1--6--6--6--4--|
A|--4--4--4--4--4--4--4--2--|--------------4--4--4--2--|
E|--2--2--2--2--2--2--2--0--|--------------------------|

Lead Guitar
e|--------------------------|-----2--------------------|
B|--------------------2-----|--------------------------|
G|--------------3-----------|--------------------------|
D|--------------------------|--------------------------|
A|--------------------------|--------------------------|
E|--------------------------|--------------------------|

Rhythm Guitar
    PM PM PM PM PM PM PM PM    PM PM PM PM PM PM PM PM
e|--------------------------|--------------------------|
B|--------------------------|--------------------------|
G|--------------------------|--------------------------|
D|--------------------------|--4--4--4--4--4--4--4-----|
A|--4--4--4--4--4--4--4--2--|--2--2--2--2--2--2--2--2--|
E|--2--2--2--2--2--2--2--0--|-----------------------0--|

Rhythm Guitar
                    PM PM PM PM PM PM PM PM
e|-------------|----------------------------|
B|-------------|----------------------------|
G|--8-----8\6--|--6-------------------------|
D|--8-----8\6--|--6\4--4--4--4--4--4--4--4--|
A|--6-----6\4--|--4\2--2--2--2--2--2--2--2--|
E|-------------|----------------------------|

    PM PM PM PM PM PM PM PM
e|--------------------------|---------------|
B|--------------------------|--------0-0-0--|
G|--------------------------|--------4-4-4--|
D|--4--4--4--4--4--4--4--4--|--------4-4-4--|
A|--2--2--2--2--2--2--2--2--|--2-----2-2-2--|
E|--------------------------|---------------|

CHORUS
Lead Guitar
e|--6-------9--------|--6-------9--------|
B|------7---------7--|------7---------7--|
G|-------------------|-------------------|
D|-------------------|-------------------|
A|-------------------|-------------------|
E|-------------------|-------------------|

Rhythm Guitar
e|-------------------|-------------------|
B|-------------------|-------------------|
G|----------6-6-6-6--|--8-8-8-8---4-4-4--|
D|--4-4-4-4-6-6-6-6--|--8-8-8-8-x-4-4-4--|
A|--4-4-4-4-4-4-4-4--|--6-6-6-6-x-2-2-2--|
E|--2-2-2-2----------|----------x--------|

Lead Guitar
e|--6-------9--------|--6-------9--------|
B|------7---------7--|------7---------7--|
G|-------------------|-------------------|
D|-------------------|-------------------|
A|-------------------|-------------------|
E|-------------------|-------------------|

Rhythm Guitar
e|-------------------|-------------------|
B|-------------------|-------------------|
G|----------6-6-6-6--|--8-8-8-8---4-4-4--|
D|--4-4-4-4-6-6-6-6--|--8-8-8-8-x-4-4-4--|
A|--4-4-4-4-4-4-4-4--|--6-6-6-6-x-2-2-2--|
E|--2-2-2-2----------|----------x--------|

Lead Guitar
e|--6-------9--------|--6-------9--------|
B|------7---------7--|------7---------7--|
G|-------------------|-------------------|
D|-------------------|-------------------|
A|-------------------|-------------------|
E|-------------------|-------------------|

Rhythm Guitar
e|-------------------|-------------------|
B|-------------------|-------------------|
G|----------6-6-6-6--|--8-8-8-8-4-4-4-4--|
D|--4-4-4-4-6-6-6-6--|--8-8-8-8-4-4-4-4--|
A|--4-4-4-4-4-4-4-4--|--6-6-6-6-2-2-2-2--|
E|--2-2-2-2----------|-------------------|

Lead Guitar
e|--6-------9--------|--6-------9--------|
B|------7---------7--|------7---------7--|
G|-------------------|-------------------|
D|-------------------|-------------------|
A|-------------------|-------------------|
E|-------------------|-------------------|

Rhythm Guitar
e|-------------------|-------------------|
B|-------------------|-------------------|
G|----------6-6-6-6--|--8-8-8-8-4-4-4-4--|
D|--4-4-4-4-6-6-6-6--|--8-8-8-8-4-4-4-4--|
A|--4-4-4-4-4-4-4-4--|--6-6-6-6-2-2-2-2--|
E|--2-2-2-2----------|-------------------|

INTERLUDE
Lead Guitar
e|-------6---7---6--|
B|---7--------------|
G|------------------|
D|------------------|
A|------------------|
E|------------------|

Rhythm Guitar
e|------------------|
B|------------------|
G|--4-4-4-4--6-6-6--|
D|--4-4-4-4--6-6-6--|
A|--2-2-2-2--4-4-4--|
E|------------------|

BRIDGE
Rhythm Guitar
e|-------------------|-------------------|
B|-------------------|-------------------|
G|-------------------|--4-4-4-4-4-4-4-4--|
D|--4-4-4-4-4-4-4-4--|--4-4-4-4-4-4-4-4--|
A|--4-4-4-4-4-4-4-4--|--2-2-2-2-2-2-2-2--|
E|--2-2-2-2-2-2-2-2--|-------------------|

Rhythm Guitar
e|-------------------|-------------------------------|
B|-------------------|-------------------------------|
G|-------------------|--4--4--x-x-x-x--6-6--x-x-x-x--|
D|--2-2-2-2-2-2-2-2--|--4--4--x-x-x-x--6-6--x-x-x-x--|
A|--2-2-2-2-2-2-2-2--|--2--2--x-x-x-x--4-4--x-x-x-x--|
E|--0-0-0-0-0-0-0-0--|-------------------------------|

Rhythm Guitar
e|-------------------|-------------------|
B|-------------------|-------------------|
G|-------------------|--4-4-4-4-4-4-4-4--|
D|--4-4-4-4-4-4-4-4--|--4-4-4-4-4-4-4-4--|
A|--4-4-4-4-4-4-4-4--|--2-2-2-2-2-2-2-2--|
E|--2-2-2-2-2-2-2-2--|-------------------|

Rhythm Guitar
e|-------------------|-------------------------------|
B|-------------------|-------------------------------|
G|-------------------|--4--4--x-x-x-x--3-3--x-x-x-x--|
D|--2-2-2-2-2-2-2-2--|--4--4--x-x-x-x--3-3--x-x-x-x--|
A|--2-2-2-2-2-2-2-2--|--2--2--x-x-x-x--1-1--x-x-x-x--|
E|--0-0-0-0-0-0-0-0--|-------------------------------|

Rhythm Guitar
e|-----------------|-----------------|
B|-----------------|-----------------|
G|-----------------|--4---4---4---4--|
D|--4---4---4---4--|--4---4---4---4--|
A|--4---4---4---4--|--2---2---2---2--|
E|--2---2---2---2--|-----------------|

Rhythm Guitar
e|-----------------|-----------------|
B|-----------------|-----------------|
G|-----------------|--4---4---4---4--|
D|--4---4---4---4--|--4---4---4---4--|
A|--4---4---4---4--|--2---2---2---2--|
E|--2---2---2---2--|-----------------|

Rhythm Guitar
e|-----------------|-------------------|
B|-----------------|-------------------|
G|-----------------|--4---4---4---4/8--|
D|--4---4---4---4--|--4---4---4---4/8--|
A|--4---4---4---4--|--2---2---2---2/6--|
E|--2---2---2---2--|-------------------|

Rhythm Guitar
e|---------------|-----------------|
B|---------------|-----------------|
G|--8\6-----6----|-----------------|
D|--8\6-----6----|-----------------|
A|--6\4-----4\2--|-----------------|
E|---------------|-------x---2--2--|

Rhythm Guitar
e|----------------|--------------------------|
B|----------------|--------------------------|
G|----------6--6--|--8--8--8--8--8--8--8--8--|
D|--4--4----6--6--|--8--8--8--8--8--8--8--8--|
A|--4--4----4--4--|--6--6--6--6--6--6--6--6--|
E|--2--2----------|--------------------------|

Rhythm Guitar
e|----------------|--------------------------|
B|----------------|--------------------------|
G|----------6--6--|--8--8--8--8--8--8--8--8--|
D|--4--4----6--6--|--8--8--8--8--8--8--8--8--|
A|--4--4----4--4--|--6--6--6--6--6--6--6--6--|
E|--2--2----------|--------------------------|

Rhythm Guitar
e|-------------------|-------------------|
B|-------------------|-------------------|
G|----------6-6-6-6--|--8-8-8-8-4-4-4-4--|
D|--4-4-4-4-6-6-6-6--|--8-8-8-8-4-4-4-4--|
A|--4-4-4-4-4-4-4-4--|--6-6-6-6-2-2-2-2--|
E|--2-2-2-2----------|-------------------|

Rhythm Guitar
e|-------------------|-------------------|
B|-------------------|-------------------|
G|----------6-6-6-6--|--8-8-8-8-4-4-4-4--|
D|--4-4-4-4-6-6-6-6--|--8-8-8-8-4-4-4-4--|
A|--4-4-4-4-4-4-4-4--|--6-6-6-6-2-2-2-2--|
E|--2-2-2-2----------|-------------------|

CHORUS
Rhythm Guitar
e|-------------------|-------------------|
B|-------------------|-------------------|
G|-------------------|--6-6-6-6-6-6-6-6--|
D|--4-4-4-4-4-4-4-4--|--6-6-6-6-6-6-6-6--|
A|--4-4-4-4-4-4-4-4--|--4-4-4-4-4-4-4-4--|
E|--2-2-2-2-2-2-2-2--|-------------------|

Rhythm Guitar
e|-------------------|-------------------|
B|-------------------|-------------------|
G|--8-8-8-8-8-8-8-8--|--4-4-4-4-4-4-4-4--|
D|--8-8-8-8-8-8-8-8--|--4-4-4-4-4-4-4-4--|
A|--6-6-6-6-6-6-6-6--|--2-2-2-2-2-2-2-2--|
E|-------------------|-------------------|

Rhythm Guitar
e|-------------------|-------------------|
B|-------------------|-------------------|
G|-------------------|--6-6-6-6-6-6-6-6--|
D|--4-4-4-4-4-4-4-4--|--6-6-6-6-6-6-6-6--|
A|--4-4-4-4-4-4-4-4--|--4-4-4-4-4-4-4-4--|
E|--2-2-2-2-2-2-2-2--|-------------------|

Rhythm Guitar
e|-------------------|-------------------|
B|-------------------|-------------------|
G|--8-8-8-8-8-8-8-8--|--4-4-4-4-4-4-4-4--|
D|--8-8-8-8-8-8-8-8--|--4-4-4-4-4-4-4-4--|
A|--6-6-6-6-6-6-6-6--|--2-2-2-2-2-2-2-2--|
E|-------------------|-------------------|

Rhythm Guitar
e|-------------------|-------------------|
B|-------------------|-------------------|
G|-------------------|--6-6-6-6-6-6-6-6--|
D|--4-4-4-4-4-4-4-4--|--6-6-6-6-6-6-6-6--|
A|--4-4-4-4-4-4-4-4--|--4-4-4-4-4-4-4-4--|
E|--2-2-2-2-2-2-2-2--|-------------------|

Rhythm Guitar
e|-------------------|-------------------|
B|-------------------|-------------------|
G|--8-8-8-8-8-8-8-8--|--4-4-4-4-4-4-4-4--|
D|--8-8-8-8-8-8-8-8--|--4-4-4-4-4-4-4-4--|
A|--6-6-6-6-6-6-6-6--|--2-2-2-2-2-2-2-2--|
E|-------------------|-------------------|

===================
Duration Legend
===================
W - Whole
H - Half
Q - Quarter
E - 8th
S - 16th
T - 32nd
X - 64th
. - Note Dotted
|-N-| - N-tuplets
===================

===============================================
Tablature Legend
===============================================
L - Tied Note
x - Dead Note
g - Grace Note
(n) - Ghost Note
> - Accentuded Note
NH - Natural Harmonic
AH - Artificial Harmonic
TH - Tapped Harmonic
SH - Semi-harmonic
PH - Pitch Harmonic
PM - Palm Mute
h - Hammer-on
p - Pull-off
b - Bend
br - BendRelease
pb - PreBend
pbr - PreBendRelease
brb - BendReleaseBend
\n/ - Tremolo Bar Dip
\n - Tremolo Bar Dive
-/n - Tremolo Bar Release Up
/n\ - Tremolo Bar Inverted Dip
/n - Tremolo Bar Return
-\n - Tremolo Bar Release Down
S - Shift slide
s - Legato slide
/ -  Slide into from below or out of upwards
\ -  Slide into from above or out of downwards
~ - Vibrato
W - Wide Vibrato
tr - Trill
TP - Tremolo Picking
T - Tapping
S - Slap
P - Pop
< - Fade in
^ - Brush up
===============================================

Tabbed by: Roberto Aleman
E-mail: Roberto0331@gmail.com
Tap to rate this tab
# A B C D E F G H I J K L M N O P Q R S T U V W X Y Z