Song name
# A B C D E F G H I J K L M N O P Q R S T U V W X Y Z

Sugarcult - Shaking tab

Shaking by Sugarcult
extremly easy song i picked up by ear. the song sounds good as a whole but its kind of boring
to play without the music


the intro is the same as the main riff but play the first part x4 instead of x2

main riff
e---------------------------------------------------------------|
B---------------------------------------------------------------|
G-5--5--3--5--5--5--3-------10--10--8--10--10--10--8------------|
D-6--6--6--6--6--6--6-x2----6---6---6--6---6---6---6-x2---------|
A---------------------------------------------------------------|
E---------------------------------------------------------------|

bridge into chorus
e---------------------------------------------------------------|
B---------------------------------------------------------------|
G---------------------------------------------------------------|
D-8-----11------------------------------------------------------|
A-6-x7--9-x7----------------------------------------------------|
E---------------------------------------------------------------|

chorus
e---------------------------------------------------------------|
B---------------------------------------------------------------|
G--------6------------------------------------------------------|
D-6------6------------------------------------------------------|
A-6-x16--4-x16--------------------------------------------------|
E-4-------------------------------------------------------------|

solo
e---------------------------------------------------------------|
B-9-8---9-----9-8---9-----9-8-----------------------------------|
G---------8-----------8-------8-10/12-10------------------------|
D---------------------------------------------------------------|x2
A---------------------------------------------------------------|
E---------------------------------------------------------------|

e---------------------------------------------------------------|
B----------6------------6-8-9-8-6-------------------------------|
G-5-8-5-8-------5-8-5-8-----------8-----------------------------|
D-----------x2--------------------------------------------------|x2
A---------------------------------------------------------------|
E---------------------------------------------------------------|

e----------|
B-9--8-6---|
G--------8-|
D----------|
A----------|
E----------|
Tap to rate this tab
 
# A B C D E F G H I J K L M N O P Q R S T U V W X Y Z