Song name
# A B C D E F G H I J K L M N O P Q R S T U V W X Y Z

Sugarcult - Explode tab

Help us improve GuitareTab! Take a short survey!
-------------------------------------------------------------------------------
			     EXPLODE - Sugarcult
-------------------------------------------------------------------------------


Tabbed by:The Black Box	
Email: howidisappear15@gmail.com

Tuning: Standard

Guitar 1: (elec. w/ clean tone)
Guitar 2: (elec. w/ dist.)
Guitar 3: (elec. w/ dist.)
Guitar 4: (synthisizer)

Intro:

Gtr. 1
e||--12-15-17-14~--12-15-9-11~-----|  |
B||--------------------------------|  |
G||o------------------------------o|  |
D||o------------------------------o|X2|  
A||--------------------------------|  |
E||--------------------------------|  |

--After Gtr. 1's riff goes through once--

Gtr. 2
e||-----------------------------------|  |
B||-----------------------------------|  |
G||o---------------------------------o|  |
D||o---------------------------------o|X2|  
A||--7-5-7-5-7-5-7-5-7-5-7-5-7-5-7-5--|  |
E||-----------------------------------|  |

Verse:

Gtr. 2
e||-----------------------------------|  |
B||-----------------------------------|  |
G||o---------------------------------o|  |
D||o---------------------------------o|X8|  
A||--7-5-7-5-7-5-7-5-7-5-7-5-7-5-7-5--|  |
E||-----------------------------------|  |


Gtr. 3
e||---------------------------------------------------------|  |
B||---------------------------------------------------------|  |
G||o--4-4--4-7-7--7-2-2--2-9-9--4-4--4-7-7-----------------o|X2|
D||o--4-4--4-7-7--7-2-2--2-9-9--4-4--4-7-7--4-4-4--2-2-2---o|  | 
A||---2-2--2-5-5--5-0-0--0-7-7--2-2--2-5-5--4-4-4--2-2-2----|  |
E||-----------------------------------------2-2-2--0-0-0----|  |


Chorus:

Gtr. 2
e||----------------------|  |
B||----------------------|  |
G||o--4-4-4-4-4-4-4-4/--o|  |
D||o--4-4-4-4-4-4-4-4/--o|X5|
A||---2-2-2-2-2-2-2-2/---|  |
E||----------------------|  |

Gtr. 3
e||---------------------------------------------------------|  |
B||---------------------------------------------------------|  |
G||o--4-4--4-7-7--7-2-2--2-9-9--4-4--4-7-7-----------------o|X2|
D||o--4-4--4-7-7--7-2-2--2-9-9--4-4--4-7-7--4-4-4--2-2-2---o|  | 
A||---2-2--2-5-5--5-0-0--0-7-7--2-2--2-5-5--4-4-4--2-2-2----|  |
E||-----------------------------------------2-2-2--0-0-0----|  |


Gtr. 3
e|---------------------------|
B|---------------------------|
G|--4-4--4-7-7--7-2-2--2-9-9-|
D|--4-4--4-7-7--7-2-2--2-9-9-| 
A|--2-2--2-5-5--5-0-0--0-7-7-|
E|---------------------------|

-- Repeat Verse --

-- Repeat Chorus --

-- Feedback -- 

Solo: 

Gtr. 4
e|---------------------------------------------------------------------------|
B|---------------------------------------------------------------------------|
G|---------------------------------------------------------------------------|
D|--12--11-9-7--9-11~--12--11-9-7--7--11-9~--12--11-9-7--9-9~----------------|
A|---------------------------------------------------------------------------|
E|---------------------------------------------------------------------------|


Gtr. 3
e||---------------------------------------------------------|  |
B||---------------------------------------------------------|  |
G||o--4-4--4-7-7--7-2-2--2-9-9--4-4--4-7-7-----------------o|X2|
D||o--4-4--4-7-7--7-2-2--2-9-9--4-4--4-7-7--4-4-4--2-2-2---o|  | 
A||---2-2--2-5-5--5-0-0--0-7-7--2-2--2-5-5--4-4-4--2-2-2----|  |
E||-----------------------------------------2-2-2--0-0-0----|  |

Gtr. 4
e|---------------------------------------------------------------------------|
B|---------------------------------------------------------------------------|
G|---------------------------------------------------------------------------|
D|--12-13-12-13-12-13-12-13-15-15-16-16-17^----------------------------------|
A|---------------------------------------------------------------------------|
E|---------------------------------------------------------------------------|

Outro

Gtr. 1
e||--12-15-17-14~--12-15-9-11~-----|  |
B||--------------------------------|  |
G||o------------------------------o|  |
D||o------------------------------o|X4|  
A||--------------------------------|  |
E||--------------------------------|  |

Gtr. 2
e||----------------------|  |
B||----------------------|  |
G||o--4-4-4-4-4-4-4-4/--o|  |
D||o--4-4-4-4-4-4-4-4/--o|X8|
A||---2-2-2-2-2-2-2-2/---|  |
E||----------------------|  |

Gtr. 3
e||---------------------------------------------------------|  |
B||---------------------------------------------------------|  |
G||o--4-4--4-7-7--7-2-2--2-9-9--4-4--4-7-7-----------------o|X4|
D||o--4-4--4-7-7--7-2-2--2-9-9--4-4--4-7-7--4-4-4--2-2-2---o|  | 
A||---2-2--2-5-5--5-0-0--0-7-7--2-2--2-5-5--4-4-4--2-2-2----|  |
E||-----------------------------------------2-2-2--0-0-0----|  |

| /  slide up
| \  slide down
| h  hammer-on
| p  pull-off
| ~  vibrato
| +  harmonic
| x  Mute note
| ^  Bend note
===============================================================================
Related for Explode tab