Song name
# A B C D E F G H I J K L M N O P Q R S T U V W X Y Z

Sugarcult - Head Up tab

-------------------------------------------------------------------------------
			     head up - sugar cult
-------------------------------------------------------------------------------
Tabbed by: TheTroy
Tuning: HALF STEP DOWN

intro (figure out strum pattern yourself)
eb|-0-----3------------------------------------------------------------------|
Bb|-1-----3------------------------------------------------------------------|
Gb|-0-----0------------------------------------------------------------------|
Db|-3-----5------------------------------------------------------------------|
Ab|-3-----5------------------------------------------------------------------|
Eb|--------------------------------------------------------------------------|

verse (intro)

chorus (figure strum yourself)
eb|--------------------------------------------------------------------------|
Bb|--------------------------------------------------------------------------|
Gb|-----5-------5-5-7-7-9-9-10-10------5-------10-10-9-9-7-7-5-5-------------|
Db|-3---5---5---x-x-x-x-x-x-x--x---3---5---5---x--x--x-x-x-x-x-x-------------|
Ab|-3---3---5---3-3-5-5-7-7-8--8---3---3---5---8--8--7-7-5-5-3-3-------------|
Eb|-1-------3----------------------1-------3---------------------------------|

play verse

play chorus

bridge (sorry. imnot sure what it is. i think its just the verse chords)

play chorus.


there. not hard at all

| /  slide up
| \  slide down
| h  hammer-on
| p  pull-off
| ~  vibrato
| +  harmonic
| x  Mute note
===============================================================================
Tap to rate this tab
# A B C D E F G H I J K L M N O P Q R S T U V W X Y Z