Song name
# A B C D E F G H I J K L M N O P Q R S T U V W X Y Z

Sugarcult - Hiatus tab

Guitar 1
Intro
(0:00 - 0:22)
e-----                ---------------------------------------------|
B-----                ---------------------------------------------|
G---6-                -6-6-6-6-6--4-4-4-4-4-6--x-x-x-x-x-x-x-x-x-x-|  (x4)
D---x- played fast    -x-x-x-x-x--x-x-x-x-x-x--x-x-x-x-x-x-x-x-x-x-|
A---4-                -4-4-4-4-4--2-2-2-2-2-4--x-x-x-x-x-x-x-x-x-x-|
E-----                ---------------------------------------------|

e---------------------------------------|
B---------------------------------------|
G---------4-4-4-------------------------|
D---2-2-2-4-4-4-2-2-4-4-4-2-2-2-4-------|
A---2-2-2-2-2-2-2-2-4-4-4-2-2-2-4-------|
E---0-0-0-------0-0-2-2-2-0-0-0-2-------|

Verse
(0:23 - 0:57)
e-----------------------------------------------|
B-----------------------------------------------|
G---6-6-6-6-6--4-4-4-4-4-6--x-x-x-x-x-x-x-x-x-x-|
D---x-x-x-x-x--x-x-x-x-x-x--x-x-x-x-x-x-x-x-x-x-|   (x3)
A---4-4-4-4-4--2-2-2-2-2-4--x-x-x-x-x-x-x-x-x-x-|
E-----------------------------------------------|

e---------------------------------------|
B---------------------------------------|
G---------4-4-4-------------------------|
D---2-2-2-4-4-4-2-2-4-4-4-2-2-2-4-------|
A---2-2-2-2-2-2-2-2-4-4-4-2-2-2-4-------|
E---0-0-0-------0-0-2-2-2-0-0-0-2-------|

e------------------------------------------------|
B------------------------------------------------|
G---6-6-6-6-6--4-4-4-4-4-6--x-x-x-x-x-x-x-x-x-x--|
D---x-x-x-x-x--x-x-x-x-x-x--x-x-x-x-x-x-x-x-x-x--|   (x3)
A---4-4-4-4-4--2-2-2-2-2-4--x-x-x-x-x-x-x-x-x-x--|
E------------------------------------------------|

e---------------------------------------|
B---------------------------------------|
G---------4-4-4-------------------------|
D---2-2-2-4-4-4-2-2-4-4-4-2-2-2-4-------|   (x2)
A---2-2-2-2-2-2-2-2-4-4-4-2-2-2-4-------|
E---0-0-0-------0-0-2-2-2-0-0-0-2-------|

Chorus
(0:58 - 1:12)
e-------------------------------------------------------------------|
B-------------------------------------------------------------------|
G---4-4-4-4-4-4-4-4-4-4-4-4-4-4-4-4---------------------------------|
D---4-4-4-4-4-4-4-4-4-4-4-4-4-4-4-4-2-2-2-2-2-2-2-2-2-2-2-2-2-2-2-2-|
A---2-2-2-2-2-2-2-2-2-2-2-2-2-2-2-2-2-2-2-2-2-2-2-2-2-2-2-2-2-2-2-2-|
E-----------------------------------0-0-0-0-0-0-0-0-0-0-0-0-0-0-0-0-|

e-------------------------------------------------------------------|
B-------------------------------------------------------------------|
G---4-4-4-4-4-4-4-4-4-4-4-4-4-4-4-4---------------------------------|
D---4-4-4-4-4-4-4-4-4-4-4-4-4-4-4-4-2-2-2-2-2-2-2-2-4-4-4-4-4-4-4-4-|
A---2-2-2-2-2-2-2-2-2-2-2-2-2-2-2-2-2-2-2-2-2-2-2-2-4-4-4-4-4-4-4-4-|
E-----------------------------------0-0-0-0-0-0-0-0-2-2-2-2-2-2-2-2-|

Second Verse
(1:13 - 1:33)
e--------------------------------------------------|
B--------------------------------------------------|
G---6-6-6-6-6--4-4-4-4-4-6--x-x-x-x-x-x-x-x-x-x----|
D---x-x-x-x-x--x-x-x-x-x-x--x-x-x-x-x-x-x-x-x-x----|   (x3)
A---4-4-4-4-4--2-2-2-2-2-4--x-x-x-x-x-x-x-x-x-x----|
E--------------------------------------------------|

e-----------------------------------------|
B-----------------------------------------|
G---------4-4-4---------------------------|
D---2-2-2-4-4-4-2-2-4-4-4-2-2-2-4---------|   (x2)
A---2-2-2-2-2-2-2-2-4-4-4-2-2-2-4---------|
E---0-0-0-------0-0-2-2-2-0-0-0-2---------|

Second Chorus
(1:34 - 2:05)
e-------------------------------------------------------------------|
B-------------------------------------------------------------------|
G---4-4-4-4-4-4-4-4-4-4-4-4-4-4-4-4---------------------------------|
D---4-4-4-4-4-4-4-4-4-4-4-4-4-4-4-4-2-2-2-2-2-2-2-2-2-2-2-2-2-2-2-2-|
A---2-2-2-2-2-2-2-2-2-2-2-2-2-2-2-2-2-2-2-2-2-2-2-2-2-2-2-2-2-2-2-2-|
E-----------------------------------0-0-0-0-0-0-0-0-0-0-0-0-0-0-0-0-|

e-------------------------------------------------------------------|
B-------------------------------------------------------------------|
G---4-4-4-4-4-4-4-4-4-4-4-4-4-4-4-4---------------------------------|
D---4-4-4-4-4-4-4-4-4-4-4-4-4-4-4-4-2-2-2-2-2-2-2-2-4-4-4-4-4-4-4-4-|
A---2-2-2-2-2-2-2-2-2-2-2-2-2-2-2-2-2-2-2-2-2-2-2-2-4-4-4-4-4-4-4-4-|
E-----------------------------------0-0-0-0-0-0-0-0-2-2-2-2-2-2-2-2-|

e-------------------------------------------------------------------|
B-------------------------------------------------------------------|
G---4-4-4-4-4-4-4-4-4-4-4-4-4-4-4-4---------------------------------|
D---4-4-4-4-4-4-4-4-4-4-4-4-4-4-4-4-2-2-2-2-2-2-2-2-2-2-2-2-2-2-2-2-|
A---2-2-2-2-2-2-2-2-2-2-2-2-2-2-2-2-2-2-2-2-2-2-2-2-2-2-2-2-2-2-2-2-|
E-----------------------------------0-0-0-0-0-0-0-0-0-0-0-0-0-0-0-0-|

e-------------------------------------------------------------------|
B-------------------------------------------------------------------|
G-------------------------------------------------------------------|
D---6-6-6-6-6-6-6-6-6-6-6-6-6-6-6-6-4-4-4-4-4-4-4-4-4-4-4-4-4-4-4-4-|
A---6-6-6-6-6-6-6-6-6-6-6-6-6-6-6-6-4-4-4-4-4-4-4-4-4-4-4-4-4-4-4-4-|
E---4-4-4-4-4-4-4-4-4-4-4-4-4-4-4-4-2-2-2-2-2-2-2-2-2-2-2-2-2-2-2-2-|

Bridge
(2:06 - 2:44)
e-----
B-----
G---6-
D---x- played fast
A---4-
E-----

w/feedback
e---16~ --9~ --16^17r16~ --9~ --16^17r16~ --9~ --16~ --9~ --16~ --9~
B-------------------------------------------------------------------|
G-------------------------------------------------------------------|
D-------------------------------------------------------------------|
A-------------------------------------------------------------------|
E-------------------------------------------------------------------|

Third Chorus
(3:00 - 3:47)
e-------------------------------------------------------------------|
B-------------------------------------------------------------------|
G---4-4-4-4-4-4-4-4-4-4-4-4-4-4-4-4---------------------------------|
D---4-4-4-4-4-4-4-4-4-4-4-4-4-4-4-4-2-2-2-2-2-2-2-2-2-2-2-2-2-2-2-2-|
A---2-2-2-2-2-2-2-2-2-2-2-2-2-2-2-2-2-2-2-2-2-2-2-2-2-2-2-2-2-2-2-2-|
E-----------------------------------0-0-0-0-0-0-0-0-0-0-0-0-0-0-0-0-|

e-------------------------------------------------------------------|
B-------------------------------------------------------------------|
G---4-4-4-4-4-4-4-4-4-4-4-4-4-4-4-4---------------------------------|
D---4-4-4-4-4-4-4-4-4-4-4-4-4-4-4-4-2-2-2-2-2-2-2-2-4-4-4-4-4-4-4-4-|
A---2-2-2-2-2-2-2-2-2-2-2-2-2-2-2-2-2-2-2-2-2-2-2-2-4-4-4-4-4-4-4-4-|
E-----------------------------------0-0-0-0-0-0-0-0-2-2-2-2-2-2-2-2-|

e-------------------------------------------------------------------|
B-------------------------------------------------------------------|
G---4-4-4-4-4-4-4-4-4-4-4-4-4-4-4-4---------------------------------|
D---4-4-4-4-4-4-4-4-4-4-4-4-4-4-4-4-2-2-2-2-2-2-2-2-2-2-2-2-2-2-2-2-|
A---2-2-2-2-2-2-2-2-2-2-2-2-2-2-2-2-2-2-2-2-2-2-2-2-2-2-2-2-2-2-2-2-|
E-----------------------------------0-0-0-0-0-0-0-0-0-0-0-0-0-0-0-0-|

e-------------------------------------------------------------------|
B-------------------------------------------------------------------|
G-------------------------------------------------------------------|
D---6-6-6-6-6-6-6-6-6-6-6-6-6-6-6-6-4-4-4-4-4-4-4-4-4-4-4-4-4-4-4-4-|
A---6-6-6-6-6-6-6-6-6-6-6-6-6-6-6-6-4-4-4-4-4-4-4-4-4-4-4-4-4-4-4-4-|
E---4-4-4-4-4-4-4-4-4-4-4-4-4-4-4-4-2-2-2-2-2-2-2-2-2-2-2-2-2-2-2-2-|

e-------------------------------------------------------------------|
B-------------------------------------------------------------------|
G---4-4-4-4-4-4-4-4-4-4-4-4-4-4-4-4---------------------------------|
D---4-4-4-4-4-4-4-4-4-4-4-4-4-4-4-4-2-2-2-2-2-2-2-2-2-2-2-2-2-2-2-2-|
A---2-2-2-2-2-2-2-2-2-2-2-2-2-2-2-2-2-2-2-2-2-2-2-2-2-2-2-2-2-2-2-2-|
E-----------------------------------0-0-0-0-0-0-0-0-0-0-0-0-0-0-0-0-|

e-------------------------------------------------------------------|
B-------------------------------------------------------------------|
G-------------------------------------------------------------------|
D---6-6-6-6-6-6-6-6-6-6-6-6-6-6-6-6-4-4-4-4-4-4-4-4-4-4-4-4-4-4-4-4-|
A---6-6-6-6-6-6-6-6-6-6-6-6-6-6-6-6-4-4-4-4-4-4-4-4-4-4-4-4-4-4-4-4-|
E---4-4-4-4-4-4-4-4-4-4-4-4-4-4-4-4-2-2-2-2-2-2-2-2-2-2-2-2-2-2-2-2-|

End
(3:47 - 4:01)
e-------|
B-------|
G---4~ -
D---4~ -
A---2~ -
E-------

Guitar 2
Intro
(0:10 - 0:22)
e----------------------------------------------------|
B---9---7----------9---7-12-9--------7---------------|
G-----9---6-4-6------9-------------4---4-9-8-9--6~ --|
D----------------------------------------------------|
A----------------------------------------------------|
E----------------------------------------------------|

Verse
(0:34 - 0:57)
e-------------------------------------------------------------|
B-----7------------------------7-----------7------------------|
G---4---4-9-8-9--6~ --6~ --4~ --4---4-9-8-9-4---4-9-8-9--6----|
D-------------------------------------------------------------|
A-------------------------------------------------------------|
E-------------------------------------------------------------|

Chorus
(0:58 - 1:12)
e----------------------|
B-----7---9-7-----7----|
G---4---4-----8h9------|
D----------------------|   (x3)
A----------------------|
E----------------------|

e----------------------|
B-----4------9-7-------|
G---6---4-6------------|
D----------------------|
A----------------------|
E----------------------|

Second Verse
(1:13 - 1:33)
e------------------------------------------------------|
B---14~ -------14~ -------12~ ---7-----------7---------|
G---13~ -------13~ -------11~ -4---4-9-8-9-4---4-9-8-9-|
D------------------------------------------------------|
A------------------------------------------------------|
E------------------------------------------------------|

Second Chorus
(1:34 - 2:05)
e---------------------|
B-----7---9-7-----7---|
G---4---4-----8h9-----|
D---------------------|   (x3)
A---------------------|
E---------------------|

e---------------------|
B-----4------9-7------|
G---6---4-6-----------|
D---------------------|
A---------------------|
E---------------------|

e---------------------|
B-----7---9-7-----7---|
G---4---4-----8h9-----|
D---------------------|   (x3)
A---------------------|
E---------------------|

e---------------------|
B-----4------9-7------|
G---6---4-6-----------|
D---------------------|
A---------------------|
E---------------------|

Bridge
(2:23 - 2:59)
e----------------------------          ----------------------------
B-------12-14--12-----------           -4~ ---4~ ---4~ ---4~ -11---
G---11--------------11~ ---- (x2) then -4~ ---4~ ---4~ ---4~ -11---
D---------------------------           -4~ ---4~ ---4~ ---4~ -11---
A---------------------------           -2~ ---2~ ---2~ ---2~ -9----
E---------------------------           ----------------------------

Third Chorus
(3:00 - 3:47)
e---------------------|
B-----7---9-7-----7---|
G---4---4-----8h9-----|
D---------------------|   (x3)
A---------------------|
E---------------------|

e---------------------|
B-----4------9-7------|
G---6---4-6-----------|
D---------------------|
A---------------------|
E---------------------|

e---------------------|
B-----7---9-7-----7---|
G---4---4-----8h9-----|
D---------------------|   (x3)
A---------------------|
E---------------------|

e---------------------|
B-----4------9-7------|
G---6---4-6-----------|
D---------------------|
A---------------------|
E---------------------|

e---------------------|
B-----7---9-7-----7---|
G---4---4-----8h9-----|
D---------------------|   (x3)
A---------------------|
E---------------------|

e---------------------|
B-----4------9-7------|
G---6---4-6-----------|
D---------------------|
A---------------------|
E---------------------|

End
(3:48 - 4:01)
e-------|
B-------|
G---6~ -
D-------|
A-------|
E-------|

Lyrics

Verse
The distance between the sheets
When chemicals compete
The friction of skin is deathly unbearable, yeah
The basics of war are near
The coward's in you and me
There's no turning back
We walked into this
Don't confuse it

Chorus
Love
Wasted on the young
Detonate it and run
Never want to own a heart that breaks at all


Second Verse
Bodies with no remorse
Clothing lines the floors
The red on the skin is fading slowly
Dancing lonely


Second Chorus
Love
Wasted on the young
Detonate it and run
Never want to own a heart that breaks at all
Taken by it fast
Sacred in the moment
I can feel your breath
You couldn't save me
Taken by it fast
Sacred in the moment
I predict the worst
You're going to hate me


Bridge
(Wasted on the young)

I could leave all of this behind
I should leave all of this behind


Third Chorus
Love
Wasted on the young
Detonate it and run
Never wanted all the hard, the breaks at all
Taken by it fast
Sacred in the moment
I can feel your breath
You couldn't save me
Taken by it fast
Sacred in the moment
I predict the worst
You're going to hate me

(Wasted on the young)
You couldn't save me
(Wasted on the young)

End
I can't live this way forever
I cannot live this way forever
Tap to rate this tab
# A B C D E F G H I J K L M N O P Q R S T U V W X Y Z