Song name
# A B C D E F G H I J K L M N O P Q R S T U V W X Y Z

Sugarcult - Made A Mistake tab

Hints
P.M. = Palm Mute
br   = Bend and Release
X    = Mute the X'ed String/Played how many times


Intro(Lead Guitar)
|-------------------------------------------------------------------|
|--------6-6---8-8----------6-8----------6-6---5-5---6-6---5--------|
|-7-7-----------------7-7----------5-5------------------------5-----| 3x
|-------------------------------------------------------------------|
|-------------------------------------------------------------------|
|-------------------------------------------------------------------|

 Rhythm
 P.M.===============================================================|
|-------------------------------------------------------------------|
|-------------------------------------------------------------------|
|--7-7-7-7-7-7-7-7-7-7-7-7-7-7-7-7-5-5-5-5-5-5-5-5------------------|3x
|--------------------------------------------------5-5-5-5-5-5-5-5--|
|-------------------------------------------------------------------|
|-------------------------------------------------------------------|

VERSE(Rhythm)
 P.M.===============================================================|
|----------------|----------------|-----------------|----------------|
|----------------|----------------|-----------------|----------------|
|-7-7-7-7-7-7-7-7|-7-7-7-7-7-7-7-7|-5-5-5-5-5-5-5-5-|5-5-5-5-5-5-5-5-|
|----------------|----------------|-----------------|----------------|
|----------------|----------------|-----------------|----------------|
|----------------|----------------|-----------------|----------------|

-|---------------|----------------|-----------------|-----------------|
-|---------------|----------------|-----------------|-----------------|
-|---------------|----------------|-5-5-5-5-5-5-5-5-|-5-5-5-5-5-5-5-5-| 1x
-|7-7-7-7-7-7-7-7|-7-7-7-7-7-7-7-7|-----------------|-----------------|
-|---------------|----------------|-----------------|-----------------|
-|---------------|----------------|-----------------|-----------------|

 P.M.=================================================================|
|----------------|----------------|-----------------|----------------|
|----------------|----------------|-----------------|----------------|
|-7-7-7-7-7-7-7-7|-7-7-7-7-7-7-7-7|-5-5-5-5-5-5-5-5-|5-5-5-5-5-5-5-5-|
|----------------|----------------|-----------------|----------------|
|----------------|----------------|-----------------|----------------|
|----------------|----------------|-----------------|----------------|

-|---------------|----------------|-----------------|------------------|
-|---------------|----------------|-----------------|------------------|
-|---------------|----------------|-----------------|------------------|1x
-|7-7-7-7-7-7-7-7|-7-7-7-7-7-7-7-7|-5-5-5-5-5-5-5-5-|-5-5-5-5-5-5-5-5--|
-|---------------|----------------|-----------------|------------------|
-|---------------|----------------|-----------------|------------------|


After 1x of Rhythm, Lead Guitar Comes in...

|--------|-------|--------|-----5-|-------|-------|-------|-------|
|---3---5~-------|---5---6~-------|--6----|-----8-|-------|-------|
|-2------|-------|-2------|-------|-------|-------|-------|-------|
|--------|-------|--------|-------|-------|-------|-------|-------|
|--------|-------|--------|-------|-------|-------|-------|-------|
|--------|-------|--------|-------|-------|-------|-------|-------|

Chorus

Rhythm
|---------------|---------------|---------------|---------------|
|---------------|---------------|---------------|---------------|
|-7-7-7-7-7-7-7-|---------------|-5-5-5-5-5-5-5-|---------------|
|-7-7-7-7-7-7-7-|-7-7-7-7-7-7-7-|-5-5-5-5-5-5-5-|-5-5-5-5-5-5-5-|2x
|-5-5-5-5-5-5-5-|-7-7-7-7-7-7-7-|-3-3-3-3-3-3-3-|-5-5-5-5-5-5-5-|
|---------------|-5-5-5-5-5-5-5-|---------------|-3-3-3-3-3-3-3-|

Lead                                            ?????
|---------------|---------------|---------------|-------------|
|---------------|---------------|---------------|-------------|
|-10------------|-9-------------|-12------------|-9(10)-------|play () on 2x
|-X-(8x)--------|-X-(8x)--------|--X-(8x)-------|-X(X)(8x)----|2x
|-8-------------|-7-------------|-10------------|-7(8)--------|
|---------------|---------------|---------------|-------------|

After Chorus play this lead again
 Lead
|-------------------------------------------------------------------|
|--------6-6---8-8----------6-8----------6-6---5-5---6-6---5--------|
|-7-7-----------------7-7----------5-5------------------------5-----|
|-------------------------------------------------------------------|
|-------------------------------------------------------------------|
|-------------------------------------------------------------------|

With this Rhythm
|---------------|---------------|---------------|---------------|
|---------------|---------------|---------------|---------------|
|-7-7-7-7-7-7-7-|---------------|-5-5-5-5-5-5-5-|---------------|
|-7-7-7-7-7-7-7-|-7-7-7-7-7-7-7-|-5-5-5-5-5-5-5-|-5-5-5-5-5-5-5-|
|-5-5-5-5-5-5-5-|-7-7-7-7-7-7-7-|-3-3-3-3-3-3-3-|-5-5-5-5-5-5-5-|
|---------------|-5-5-5-5-5-5-5-|---------------|-3-3-3-3-3-3-3-|


  *Repeat Verse*
  *Repeat Chorus*

BRIDGE(I Can Only Say.....)

Lead                  br                       br
|-5----5----5----5----5----5----5----5----5---------|
|----------------------------------------------5----|
|-----7----7----7----7----7----7----7----7---7----5-|3x
|---------------------------------------------------|
|---------------------------------------------------|
|---------------------------------------------------|

Rhythm with BRIDGE
|------------|------------|------------|------------|
|------------|------------|------------|------------|
|-7--7--7--7-|------------|-5--5--5--5-|------------|
|-7--7--7--7-|-7--7--7--7-|-5--5--5--5-|-5--5--5--5-|
|-5--5--5--5-|-7--7--7--7-|-3--3--3--3-|-5--5--5--5-|
|------------|-5--5--5--5-|------------|-3--3--3--3-|


*Repeat Chorus*

SOLO
Lead                  br                       br
|-5----5----5----5----5----5----5----5----5---------|
|----------------------------------------------5----|
|-----7----7----7----7----7----7----7----7---7----5-|2x
|---------------------------------------------------|
|---------------------------------------------------|
|---------------------------------------------------|

Lead                       br                   br
|-5----5----10----5----5----5----5----5----5---------|
|-----------------------------------------------5----|
|-----7----7-----7----7----7----7----7----7---7----5-|2x
|----------------------------------------------------|
|----------------------------------------------------|
|----------------------------------------------------|

 P.M.===============================================================|
|-------------------------------------------------------------------|
|-------------------------------------------------------------------|
|--7-7-7-7-7-7-7-7-7-7-7-7-7-7-7-7-5-5-5-5-5-5-5-5------------------|4x
|--------------------------------------------------5-5-5-5-5-5-5-5--|
|-------------------------------------------------------------------|
|-------------------------------------------------------------------|


*Repeat Chorus*

OUTRO(I could Never......)

Lead                  br                       br
|-5----5----5----5----5----5----5----5----5---------|
|----------------------------------------------5----|
|-----7----7----7----7----7----7----7----7---7----5-|2x
|---------------------------------------------------|
|---------------------------------------------------|
|---------------------------------------------------|

Lead                       br                   br
|-5----5----10----5----5----5----5----5----5---------|
|-----------------------------------------------5----|
|-----7----7-----7----7----7----7----7----7---7----5-|2x
|----------------------------------------------------|
|----------------------------------------------------|
|----------------------------------------------------|

 Rhythm
|------------|------------|------------|------------|
|------------|------------|------------|------------|
|-7--7--7--7-|------------|-5--5--5--5-|------------|
|-7--7--7--7-|-7--7--7--7-|-5--5--5--5-|-5--5--5--5-|4x
|-5--5--5--5-|-7--7--7--7-|-3--3--3--3-|-5--5--5--5-|
|------------|-5--5--5--5-|------------|-3--3--3--3-|

__________________________________________________________________

Its almost accurate
Please point out the mistakes if you find any
and if it helped a little then please rate it.
Thanx :)
Tap to rate this tab
 
# A B C D E F G H I J K L M N O P Q R S T U V W X Y Z