Song name
# A B C D E F G H I J K L M N O P Q R S T U V W X Y Z

Sugarcult - Saying Goodbye tab

INTRO AND CHORUS (distortion)

Lead (First section is played twice)
E|-13----13----15----15----13----13----13----15-|-13----15----13----15-|
B|----13----13----13----13----13----13----13----|----13----13----13----|
G|----------------------------------------------|----------------------|
D|----------------------------------------------|----------------------|
A|----------------------------------------------|----------------------|
E|----------------------------------------------|----------------------|

E|-13----13----13----15----13----13----15----15-------------------------|
B|----13----13----13----13----13----13----13----15-13-15-13-15-13-15-13-|
G|----------------------------------------------------------------------|
D|----------------------------------------------------------------------|
A|----------------------------------------------------------------------|
E|----------------------------------------------------------------------|
Backup (distortion)
E|------------------------------|
B|------------------------------|
G|--------5-5--5----------------|
D|-3-3--3-5-5--5-8-8--8-8-7-8-7-|
A|-3-3--3-3-3--3-8-8--8-8-7-8-7-|
E|-1-1--1--------6-6--6-6-5-6-5-|

VERSE

Lead (distorted, second section clean and played only second time through the verse)
			second section () notes played second time through the riff only
E|----------------|---1-3-----(0)-(1)-|-----|
B|----------------|-1-----(1)---------|-----|
G|-7-5-10-9-10-10-|-------------------|-7-5-|
D|-x-x------------|-------------------|-7-5-|
A|-5-3------------|-------------------|-5-3-|
E|----------------|-------------------|-----|
Backup (Same chords as intro, distorted)

BRIDGE
(distorted)
E|-----------------|
B|-----------------|
G|-5-5-7-7---------|
D|-5-5-7-7-8-8-8-8-|
A|-3-3-5-5-8-8-8-8-|
E|---------6-6-6-6-|

INTERLUDE (Play first break twice, then last part)
(distorted)
E|---------|---------------------------------------|
B|---------|-13-13-13-13---------------------------|
G|-10-9-10-|-------------9-10/12\10-9\7\5-10-12-17-|
D|--x-x--x-|-------------x-x/--x--x\x\x\x--x--x--x-|
A|--8-7--8-|-------------7-8//10\\8\7\5\3--8-10-15-|
E|---------|---------------------------------------|
clean part
E|-5---8---5---8---5---6---5---8---|-5-8-6-|
B|---6---6---6---6---6---6---6---6-|-------|
G|---------------------------------|-------|
D|---------------------------------|-------|
A|---------------------------------|-------|
E|---------------------------------|-------|

**rhythm isn't always shown, and feel free to improvise around sections e.g. lead during 
verse, that's what I do**
Tap to rate this tab
 
# A B C D E F G H I J K L M N O P Q R S T U V W X Y Z