Sugarcult - Head Up tab

------------------------------------------------------------------------
			     head up - sugarcult        
------------------------------------------------------------------------
Tabbed by:????????Metal     (palm trees and powerlines)
Tuning: Half Step Down

Intro and Verse 
d#|-0--0-0---0-----0--0-0---0-----3--3-3---3-----3--3-3---3-----|
A#|-1--1-1---1-----1--1-1---1-----3--3-3---3-----3--3-3---3-----|
F#|-0--0-0---0-----0--0-0---0-----0--0-0---0-----0--0-0---0-----| 
C#|-3--3-3---3-----3--3-3---3-3---5--5-5---5-----5--5-5---5-5---| x6
G#|-3--3-3---3-----3--3-3---3-3---5--5-5---5-----5--5-5---5-5---|
D#|-------------------------------------------------------------|

Chorus
d#|--------------------------------------------------------------------|
A#|--------------------------------------------------------------------|
F#|-----------------5-5-5-5-5-5-5-5-----------------5-5-7-7-9-9-10-10--|
C#|-3-3-3-3-3-3-3-3-5-5-5-5-5-5-5-5-5-5-5-5-5-5-5-5-x-x-x-x-x-x-x--x---|
G#|-3-3-3-3-3-3-3-3-3-3-3-3-3-3-3-3-5-5-5-5-5-5-5-5-3-3-5-5-7-7-8--8---|
D#|-1-1-1-1-1-1-1-1-----------------3-3-3-3-3-3-3-3--------------------|
  
d#|--------------------------------------------------------------------|
A#|--------------------------------------------------------------------|
F#|----------------5-5-5-5-5-5-5-5-------------------10-10-9-9-7-7-5-5-|
C#|3-3-3-3-3-3-3-3-5-5-5-5-5-5-5-5-5-5-5-5-5-5-5-5-5-x--x--x-x-x-x-x-x-|
G#|3-3-3-3-3-3-3-3-3-3-3-3-3-3-3-3-5-5-5-5-5-5-5-5-5-8--8--7-7-5-5-3-3-|
D#|1-1-1-1-1-1-1-1-----------------3-3-3-3-3-3-3-3-3-------------------|
  
play verse 4 times

play chorus

after chorus 'Is there somewhere you can get out on your own...'(singing)
d#|-----------------------------------------------------------------|
A#|-----------------------------------------------------------------|
F#|-------------------------5-5-5-5-5-5-5-5-------------------------|
C#|-3-3-3-3-3-3-3-3-3-3-3-3-5-5-5-5-5-5-5-5-5-5-5-5-5-5-5-5-5-5-5-5-| x2
G#|-3-3-3-3-3-3-3-3-3-3-3-3-3-3-3-3-3-3-3-3-5-5-5-5-5-5-5-5-5-5-5-5-|
D#|-1-1-1-1-1-1-1-1-1-1-1-1-----------------3-3-3-3-3-3-3-3-3-3-3-3-|
   

bridge 'On your own...'(singing)   
          Gtr 1
d#|------------------|
A#|-5----3-----------|
F#|-----------5----4-| 
C#|------------------|
G#|------------------|
D#|------------------| 
          Gtr 2         x4
   pm  pm  pm  pm  pm
d#|---3---3--3----3--|
A#|-3--33--33--33---3| 
F#|------------------| I think these are the right notes but the palm
C#|------------------| muting might be different timing and/or rhythm.
G#|------------------| 
D#|------------------|                       

little rife before the 3rd verse
d#|-----------------------------|
A#|-----------------------------|
F#|-7--7-7--7-7----9--9-9--9-9--| 
C#|-7--7-7--7-7----7--7-7--7-7--|
G#|-5--5-5--5-5----5--5-5--5-5--|
D#|-----------------------------| 
 

play intro and verse 3 times

play chorus

play after chorus

Ending Chorus 'Whach this fade away...'(singing)

d#|-----------------------------------------------------------------|
A#|-----------------------------------------------------------------|
F#|-5-5-5-5-5-5-5-5-5-5-5-5-----------------------------------------|
C#|-5-5-5-5-5-5-5-5-5-5-5-5-5-5-5-5-5-5-5-5-5-5-5-5-5-5-5-5-5-5-5-5-|
G#|-3-3-3-3-3-3-3-3-3-3-3-3-5-5-5-5-5-5-5-5-5-5-5-5-5-5-5-5-5-5-5-5-|
D#|-------------------------3-3-3-3-3-3-3-3-3-3-3-3-3-3-3-3-3-3-3-3-|

end with Intro
   
| /  slide up
| \  slide down
| h  hammer-on
| p  pull-off
| ~  vibrato
| +  harmonic
| pm palm mute
| x  Mute note
===============================================================================
Tap to rate this tab
 
# A B C D E F G H I J K L M N O P Q R S T U V W X Y Z