Song name
# A B C D E F G H I J K L M N O P Q R S T U V W X Y Z

Sugarcult - Stuck In America tab

Stuck in america-sugarcult   i'm italian, sorry for the mistakes


Giutar 1
--7---7---7---7---7---7---7---7---------------|
----6---6---6---6---6---6---6---6-------------|
----------------------------------------------|
----------------------------------------------|
----------------------------------------------|
----------------------------------------------|
Giutar2
--------------------------|
--------5-----------5-----|
--4-----5--6--4-----5--6--|
--4--4--3--6--4--4--3--6--|
--2--4-----4--2--4-----4--|
-----2-----------2--------|
today...


Guitar 2
------------------------|--------------------------------------------------|
------------------------|--------------------------------------------------|
--4--------8--8--8—-8—2x|-4--------8--8--8--8-----4--------8--8--8--8------|
--4--4--4--8--8—-8-—8---|-4--4--4--8--8--8--8-----4--4--4--8--8--8--8------|
--2--4--4--6--6--6--6---|-2--4--4—-6--6--6--6-----2--4--4--6--6--6--6------|
-----2--2---------------|----2--2------------------------2--2--------------|
Giutar 1
------------------------|--------------—-----—----------------—-------—------|
------------------------|----------5--5--5--5—-7/5-----------5--5--5--5—-7/5-|
------------------------|-6--------6--6--6--6—-8/6---6-------6--6--6--6—-8/6-|
------------------------|-6--6--6--------------------6--6--6-----------------|
------------------------|-4--6--6--------------------4--6--6-----------------|
------------------------|----4--4-----------------------4--4-----------------|


Giutar 1
--7-7-7-7-7-7-7-7-----------------------------------------------------------|
--7-7-7-7-7-7-7-7-7-7-7-7-7-7-7-7-----------------7-7-7-7-7-7-7-7—-7/9------|
--5-5-5-5-5-5-5-5-7-7-7-7-7-7-7-7-7-7-7-7-7-7-7-7-7-7-7-7-7-7-7-7—-7/9------|
------------------5-5-5-5-5-5-5-5-7-7-7-7-7-7-7-7-5-5-5-5-5-5-5-5—-7/9------|
----------------------------------5-5-5-5-5-5-5-5---------------------------|
----------------------------------------------------------------------------|

Giutar 2
------------------------------------------------|---------------------------|
------------------------------------------------|---------------------------|
4-4-4-4-4-4--------------------------4-4-4-4-4-4|-4-4-4-4-----------6-6-6-6-|
4-4-4-4-4-4-5-5-5-5-5-5--4-4-4-4-4-4-4-4-4-4-4-4|-4-4-4-4--4-4-4-4--6-6-6-6-|
2-2-2-2-2-2-5-5-5-5-5-5--4-4-4-4-4-4-2-2-2-2-2-2|-2-2-2-2--4-4-4-4--4-4-4-4-|
------------3-3-3-3-3-3--2-2-2-2-2-2------------|----------2-2-2-2----------|

----------------------------------------------|
----------------------------------------------|
-7-7-7-7-x3-4-4-4-4----------7----------------|
-7-7-7-7----4-4-4-4-4-4-4-4--7----------------|
-5-5-5-5----2-2-2-2-4-4-4-4--5----------------|
--------------------2-2-2-2-------------------|

Giutar1
--7---7/5-----7---7/5-------7---7/5------8---8/5|-----7---------5--------7--|
--7---7/5-----7---7/5-------7---7/5------8---8/5|-----7---------5--------7--|
--5---5/3-----5---5/3-------5---5/3------6---6/3|-5-5-5-----3-3-3----5-5-5--|
------------------------------------------------|-0-0-------0-0------0-0----|
------------------------------------------------|---------------------------|
------------------------------------------------|---------------------------|

-----6-x3-----3--------5--6--------------------|
-----6--------3--------5--6--------------------|
-8-8-8----5-5-5----3-3-3--8--------------------|
-0-0------0-0------0-0-------------------------|
-----------------------------------------------|
-----------------------------------------------|


Giutar2
------------------------------------------------|x2
-----------------------------------4------------|
--4-4-4-4-4-------------4-4-4-4-4--4------------|
--4-4-4-4-4--4-4-4-4-4--4-4-4-4-4--2------------|
--2-2-2-2-2--4-4-4-4-4--2-2-2-2-2---------------|
-------------2-2-2-2-2--------------------------|
Giutar1
----------------9-7-6----5---------7-7-6-5-6----|x2
----------------9-7-6----5---------7-7-6-5-6----|
--4-4-4-4-4-----7-5-4----3---------5-5-4-3-4----|
--4-4-4-4-4--4----------------------------------|
--2-2-2-2-2--4----------------------------------|
-------------2----------------------------------|
Stuck in americana

Giutar1
----1------1-----1-----1-----1-------------------------------------|
-----2-2----2-2---2-2---2-2---2-2-3353-3343 3353--33----3353--3343--|
---3--3---3--3--3--3--3--3--3--3------3---------3---53------3-------|
-------------------------------------------------------------------|
-------------------------------------------------------------------|
-------------------------------------------------------------------|
Today.....                          everybody’s....

Giutar 1
---77---7-7-77--7-7-77--7-7-77--7-7-7-7-7-7-7-7-7-7-7-7-7---7---------------|
---------6-6-----6-6-----6-6-----6-6-6-6-6-6-6-6-6-6-6-6-6-----6------------|
----------------------------------------------------------------------------|
----------------------------------------------------------------------------|
----------------------------------------------------------------------------|
----------------------------------------------------------------------------|
Today.....

Solo guitar1
-----------------------------------------------------------------------|
-----------------------------------------------------------------------|
--10-8-7-----10-8-12-10-10---10-8-8-7-7-8-10-10-8-7-7—8/10—10/12-12/14-|
---------8-8-----------------------------------------------------------|
-----------------------------------------------------------------------|
-----------------------------------------------------------------------|

----------------------------------------------|
15-15-12/16-----------------------------------|
----------------------------------------------|
----------------------------------------------|
----------------------------------------------|
----------------------------------------------|

Guitar 1
------------------------------------------------------|
------------------------------------------------------|
-6--------------------x4------------------------------|
-6-6-6--4-4--4-4-4------------------------------------|
-4-6-6--4-4--4-4-4------------------------------------|
---4-4--2-2--2-2-2------------------------------------|
Get awaaaaaaaaaaaaay

Guitar2
-7-7-7-7-7-7-7-7-7----------------------------|
--6-6-6-6-6-6-6-6-6--6-4-2--------------------|
----------------------------------------------|
----------------------------------------------|
----------------------------------------------|
----------------------------------------------|


end
---------------------------|
---------------------------|
-9—-9/4--------------------|
-9—-9/4--------------------|
-7—-7/2--------------------|
---------------------------|

i think this tab is ok, watch the video!!
Tap to rate this tab
# A B C D E F G H I J K L M N O P Q R S T U V W X Y Z