Guitaretab - guitar tabs
Song name
# A B C D E F G H I J K L M N O P Q R S T U V W X Y Z

Sugarcult - Bouncing Off The Walls tab

I think the whole thing sounds just about right,  This is the regular Start Static 
of the song, not the faster one.

Intro:
Guitar 1 (Clean)

“I’m bouncing’ off the walls again…”
e-------------------------------------------------|
B-------------------------------------------------|
G--------6--6--4--4--4--4--------6--6--4--4--4--4-|
D--4--4--6--6--4--4--4--4--4--4--6--6--4--4--4--4-|      x2
A--4--4--4--4--2--2--2--2--4--4--4--4--2--2--2--2-|
E--2--2--------------------2--2-------------------|

                                       ^
                             Pick Slide on guitar 2
                             here after second time


Verse:
Guitar 1 & 2 (Distorted)

“I’m bouncing’ off the walls again…”
e-------------------------------------------------|
B-------------------------------------------------|
G--------6--6--4--4--4--4--------6--6--4--4--4--4-|
D--4--4--6--6--4--4--4--4--4--4--6--6--4--4--4--4-|      x2
A--4--4--4--4--2--2--2--2--4--4--4--4--2--2--2--2-|
E--2--2--------------------2--2-------------------|


Chorus:
Guitar 1 & 2 (Distorted)

“My heart’s beating out of my chest…”
e-------------------------------------------------|
B-------------------------------------------------|
G--8--8--8--8--6--8--10-6--8--8--8--8--6--8--10---|
D--8--8--8--8--x--x--x--x--8--8--8--8--x--x--x----|
A--6--6--6--6--4--6--8--4--6--6--6--6--4--6--8----|
E-------------------------------------------------|

“Every penny from my last paycheck…”
e-------------------------------------------------|
B-------------------------------------------------|
G--8--8--8--8--6--8--10-6--9~---6--6--6--6--------|
D--8--8--8--8--x--x--x--x--9~---6--6--6--6--------|
A--6--6--6--6--4--6--8--4--7~---4--4--4--4--------|
E-------------------------------------------------|


Verse:
Guitar 1 & 2 (Distorted)

“I’m bouncing’ off the walls again…”
e-------------------------------------------------|
B-------------------------------------------------|
G--------6--6--4--4--4--4--------6--6--4--4--4--4-|
D--4--4--6--6--4--4--4--4--4--4--6--6--4--4--4--4-|      x2
A--4--4--4--4--2--2--2--2--4--4--4--4--2--2--2--2-|
E--2--2--------------------2--2-------------------|


Chorus:
Guitar 1 & 2 (Distorted)

“My heart’s beating out of my chest…”
e-------------------------------------------------|
B-------------------------------------------------|
G--8--8--8--8--6--8--10-6--8--8--8--8--6--8--10---|
D--8--8--8--8--x--x--x--x--8--8--8--8--x--x--x----|
A--6--6--6--6--4--6--8--4--6--6--6--6--4--6--8----|
E-------------------------------------------------|

“Every penny from my last paycheck…”
e-------------------------------------------------|
B-------------------------------------------------|
G--8--8--8--8--6--8--10-6--9~---6--6--6--6--------|
D--8--8--8--8--x--x--x--x--9~---6--6--6--6--------|
A--6--6--6--6--4--6--8--4--7~---4--4--4--4--------|
E-------------------------------------------------|


Solo:
Guitar 2 (Distorted and Wah)
[ Tab from: http://www.guitaretab.com/s/sugarcult/29799.html ]
e-------------------------------------------------------------|
B-------------------------------------------------------------|P
G--/15--11--15--11--16-16-16-16-16-16-16-16-16-16-16-16-16----|A
D--/x---x---x---x---x--x--x--x--x--x--x--x--x--x--x--x--x-----|U
A--/13--9---13--9---14-14-14-14-14-14-14-14-14-14-14-14-14----|S
E-------------------------------------------------------------|E

e-------------------------------------------------------------|
B-------------------------------------------------------------|
G--11--15--11--18--18--18--18--18--18--18--18--18--18--18--18-|
D--x---x---x---x---x---x---x---x---x---x---x---x---x---x---x--|
A--9---13--9---16--16--16--16--16--16--16--16--16--16--16--16-|
E-------------------------------------------------------------|

e-----------------------------------------------------------|
B-----------------------------------------------------------|
G--15--11--15--11--10-11-13--11--10--11--13--18--18--18--18-|
D--x---x---x---x---x--x--x---x---x---x---x---x---x---x---x--|
A--13--9---13--9---8--9--11--9---8---9---11--16--16--16--16-|
E-----------------------------------------------------------|

e-----------------------------------------------------------|
B-----------------------------------------------------------|
G--18--18--18--18--18--18--18--18---------------------------|
D--x---x---x---x---x---x---x---x----------------------------|
A--16--16--16--16--16--16--16--16---------------------------|
E-----------------------------------------------------------|

Solo (Rhythm):
Guitar 1 (Distorted)

e---------------------------------------------------|
B--------------------------P------------------------|
G--------6--6--4--4--4--4--A-----6--6--4--4--4--4---|
D--4--4--6--6--4--4--4--4--U--4--6--6--4--4--4--4---|
A--4--4--4--4--2--2--2--2--S--4--4--4--2--2--2--2---|
E--2--2--------------------E--2---------------------|
e---------------------------------------------------|
B---------------------------------------------------|
G--------6--6--4--4--4-4-4--------6--6--4--4--4--4--|
D--4--4--6--6--4--4--4-4-4--4--4--6--6--4--4--4--4--|
A--4--4--4--4--2--2--2-2-2--4--4--4--4--2--2--2--2--|
E--2--2---------------------2--2--------------------|


Chorus (Directly after solo, no singing):
Guitar 1 & 2 (Distorted)

e----------------------------------------------------|
B----------------------------------------------------|
G--8--8--8--8--6--8--10-6--8--8--8--8--6--8--10------|
D--8--8--8--8--x--x--x--x--8--8--8--8--x--x--x-------|
A--6--6--6--6--4--6--8--4--6--6--6--6--4--6--8-------|
E----------------------------------------------------|


e-----------------------------0~------6~--------11~--|
B--------------------------------0~---7~----11~------|
G--8--8--8--8--6--8--10-6--9~------------------------|
D--8--8--8--8--x--x--x--x--9~------------------------|
A--6--6--6--6--4--6--8--4--7~------------------------|
E----------------------------------------------------|

Bridge:

No Guitar

Verse/Outro:
Guitar 1 & 2 (Distorted)

“I’m bouncing’ off the walls again…”
e-------------------------------------------------|
B-------------------------------------------------|
G--------6--6--4--4--4--4--------6--6--4--4--4--4-|
D--4--4--6--6--4--4--4--4--4--4--6--6--4--4--4--4-|      x8
A--4--4--4--4--2--2--2--2--4--4--4--4--2--2--2--2-|
E--2--2--------------------2--2-------------------|

End With:

“I’m bouncing’ off the walls again.”
e-----------------|
B-----------------|
G--------6--6--4--|
D--4--4--6--6--4--|
A--4--4--4--4--2--|
E--2--2-----------|
Related for Bouncing Off The Walls tab