Song name
# A B C D E F G H I J K L M N O P Q R S T U V W X Y Z

Sugarcult - Memory tab

Highlighted       Show chord diagrams
Sugarcult
Memory
Palm Trees And Power Lines
2004
Submitted by: paramore_fans@yahoo.com

Key: C#

Tuning: Standard EADGBe

Chords used:
C# -  x46664
Ebm - x68876
F# -  244322
G# -  466544
Bbm - x13321


Intro: C#


Verse 1:
C#
This may never start
Ebm
We could fall apart
F#                      C#
  And I'd be your memory
C#
  Lost your sense of fear
Ebm
Feelings insincere
F#                     C#
  Can I be your memory?


Chorus:
       C#
So get back back back
            F#
to where we lasted
             Bbm
Just like I imagined
              G#
I could never feel this way
       C#
So get back back
              F#
back to the disaster
                   Bbm
My heart's beating faster
              G#
Holding on to feel the same


Post Chorus: C#-G#-F#-- x2


Verse 2:
C#
This may never start
Ebm
I'll tear us apart
F#                   C#
  Can I be your enemy
C#
Losing half a year
Ebm
Waiting for you here
F#                    C#
  I'd be your anything


Guitar 2: x means palm mute
         C#                Ebm                F#              
C#
e|-4-----4-----4---|-2-----2-----2---|-4-----4-----4---|-1-----1-----1---|
B|---2-2---2-2---2-|---2-2---2-2---2-|---2-2---2-2---2-|---2-2---2-2---2-|
G|-----------------|-----------------|-----------------|-----------------|
D|-----------------|-----------------|-----------------|-----------------| x2
A|-----------------|-----------------|-----------------|-----------------|
E|-----------------|-----------------|-----------------|-----------------|
     x x   x x   x     x x   x x   x     x x   x x   x     x x   x x   x
         x2                x2                 x2               x2


(Repeat Chorus)


Interlude: C#--G#-F# x2, Bbm--G#-F# x2

Guitar 2:
       C#        G#         F#
e|-4-4-4-4-4-2-|-1-2|-4-4-4-4-4-2-1-2-|
B|-------------|----|-----------------|
G|-------------|----|-----------------|
D|-------------|----|-----------------|
A|-------------|----|-----------------|
E|-------------|----|-----------------|

    C#       G#  F#
e|-------1-|----|-4-|
B|-2--4----|-4--|---|
G|---------|----|---|
D|---------|----|---| pick slide
A|---------|----|---|
E|---------|----|---|

      Bbm       G#    F#
e|-1--1--1--1-|-1-4-|-------1----|
B|------------|-----|-2--4-----4-|
G|------------|-----|------------|
D|------------|-----|------------|
A|------------|-----|------------|
E|------------|-----|------------|

      Bbm        G#          F#
e|-4-2-1-2-4-2-|-1-2-|-------------1-|
B|-------------|-----|---------------|
G|-------------|-----|-----1---3-----|
D|-------------|-----|-4-------------|
A|-------------|-----|---------------|
E|-------------|-----|---------------|


Verse 3:
C#
This may never start
Ebm
Tearing out my heart
F#                  C#
  I'd be your memory
C#
Lost your sense of fear
Ebm
Feelings disappear
F#                     C#
  Can I be your memory?


Guitar 2: x means palm mute, wil lenter at "lost your sense of fear"
         C#                Ebm                F#              
C#
e|-4-----4-----4---|-2-----2-----2---|-4-----4-----4---|-1-----1-----1---|
B|---2-2---2-2---2-|---2-2---2-2---2-|---2-2---2-2---2-|---2-2---2-2---2-|
G|-----------------|-----------------|-----------------|-----------------|
D|-----------------|-----------------|-----------------|-----------------|
A|-----------------|-----------------|-----------------|-----------------|
E|-----------------|-----------------|-----------------|-----------------|
     x x   x x   x     x x   x x   x     x x   x x   x     x x   x x   x
         x2                x2                 x2               x2


(Repeat Chorus)


Outro:
C#              G#
This may never start
F#
We could fall apart
Bbm                   G#
  And I'd be your memory
C#                 G#
Lost your sense of fear
F#
Feelings insincere
Bbm                 G#
  Can I be your memory?


C#-G#-F#-- x5
Tap to rate this tab
 
# A B C D E F G H I J K L M N O P Q R S T U V W X Y Z