Song name
# A B C D E F G H I J K L M N O P Q R S T U V W X Y Z

Sugarcult - Back To California tab

Title: Back to California
Artist: Sugarcult
Tabbed: Loredana

Nobody seemed to be able to get this one just quite right, particularly this intro.
missed the F#. And one of the tabs was pretty good, except missing the audible slide up from
F# to the A. There's also an open strum in the intro/verse part where he picks up his
to move to the D progression. The notes in [brackets] are optional notes, and make
F# an F#minor, completing the chord and giving it a bit of a richer tone.

Intro/Verse, Guitar 1 (0:03)
e|-----------------------------------------------------------------------|
B|---------------------------------------3-3-3-3-2-2-2-2-5-5-5-5-3-3-3-3-|
G|-[2-2-2-2-2-2-2-2]---------------------2-2-2-2-2-2-2-2-2-2-2-2-2-2-2-2-|
D|--4-4-4-4-4-4-4-4-/-7-7-7-7-7-7-7-0----0-0-0-0-0-0-0-0-0-0-0-0-0-0-0-0-|
A|--4-4-4-4-4-4-4-4-/-7-7-7-7-7-7-7-0------------------------------------|
E|--2-2-2-2-2-2-2-2-/-5-5-5-5-5-5-5-0------------------------------------|

Break (0:53), Guitar 1 (Play Twice)
e|------------------------------------------------------------------|
B|------------------------------------------------------------------|
G|-9-9-9-9-9-9-9-9-9-9-9-9-9-9-9-9--7-7-7-7-7-7-7-7-7-7-7-7-7-7-7-7-|
D|-9-9-9-9-9-9-9-9-9-9-9-9-9-9-9-9--7-7-7-7-7-7-7-7-7-7-7-7-7-7-7-7-|
A|-7-7-7-7-7-7-7-7-7-7-7-7-7-7-7-7--5-5-5-5-5-5-5-5-5-5-5-5-5-5-5-5-|
E|------------------------------------------------------------------|

Break (0:53), Guitar 2 (Play Twice)
e|-----7-----7-----7-----7-----5-----5-----5-----5-|
B|-7-5---7-5---7-5---7-5---7-5---7-5---7-5---7-5---|
G|-------------------------------------------------|
D|-------------------------------------------------|
A|-------------------------------------------------|
E|-------------------------------------------------|

Verse, Guitar 1 (1:10)
e|-----------------------------------------------------------------------|
B|---------------------------------------3-3-3-3-2-2-2-2-5-5-5-5-3-3-3-3-|
G|-[2-2-2-2-2-2-2-2]---------------------2-2-2-2-2-2-2-2-2-2-2-2-2-2-2-2-|
D|--4-4-4-4-4-4-4-4-/-7-7-7-7-7-7-7-0----0-0-0-0-0-0-0-0-0-0-0-0-0-0-0-0-|
A|--4-4-4-4-4-4-4-4-/-7-7-7-7-7-7-7-0------------------------------------|
E|--2-2-2-2-2-2-2-2-/-5-5-5-5-5-5-5-0------------------------------------|

Chorus, Guitar 1 (1:48) (Play 3 Times)
e|-0-0-0-0-0-0-0-0---------------------------------------------------|
B|-2-2-2-2-2-2-2-2--0-0-0-0-0-0-0-0--3-3-3-3-2-2-2-2-5-5-5-5-3-3-3-3-|
G|-2-2-2-2-2-2-2-2--1-1-1-1-1-1-1-1--2-2-2-2-2-2-2-2-2-2-2-2-2-2-2-2-|
D|-2-2-2-2-2-2-2-2--2-2-2-2-2-2-2-2--0-0-0-0-0-0-0-0-0-0-0-0-0-0-0-0-|
A|-0-0-0-0-0-0-0-0--2-2-2-2-2-2-2-2----------------------------------|
E|------------------0-0-0-0-0-0-0-0----------------------------------|

"We couldn't win in the end..."
e|-0-0-0-0-0-0-0-0---------------------------------------------------------------|
B|-2-2-2-2-2-2-2-2--0-0-0-0-0-0-0-0----------------------------------------------|
G|-2-2-2-2-2-2-2-2--1-1-1-1-1-1-1-1--7-7-7-7--9-9-9-9--11-11-11-11--13-13-13-13--|
D|-2-2-2-2-2-2-2-2--2-2-2-2-2-2-2-2----------------------------------------------|
A|-0-0-0-0-0-0-0-0--2-2-2-2-2-2-2-2--5-5-5-5--7-7-7-7---9--9--9--9--11-11-11-11--|
E|------------------0-0-0-0-0-0-0-0----------------------------------------------|

Chorus, Guitar 2 (1:48) (Play 3 Times)
e|-5-5-5-5-5-5-5-5--7-7-7-7-7-7-7-7--9-9-9-9--7-7-7-7--5-5-5-5--7-7-7-7-|
B|----------------------------------------------------------------------|
G|----------------------------------------------------------------------|
D|----------------------------------------------------------------------|
A|----------------------------------------------------------------------|
E|----------------------------------------------------------------------|

"We couldn't win in the end..."
e|-0-0-0-0-0-0-0-0---------------------------------------------------------------|
B|-2-2-2-2-2-2-2-2--0-0-0-0-0-0-0-0----------------------------------------------|
G|-2-2-2-2-2-2-2-2--1-1-1-1-1-1-1-1--7-7-7-7--9-9-9-9--11-11-11-11--13-13-13-13--|
D|-2-2-2-2-2-2-2-2--2-2-2-2-2-2-2-2----------------------------------------------|
A|-0-0-0-0-0-0-0-0--2-2-2-2-2-2-2-2--5-5-5-5--7-7-7-7---9--9--9--9--11-11-11-11--|
E|------------------0-0-0-0-0-0-0-0----------------------------------------------|

Post Chorus (2:21)
e|--------------------|
B|--------------------|
D|-1-1--1-1--1-1--1-1-|
G|-2-2--2-2--2-2--2-2-|
A|-x-x--x-x--x-x--x-x-|
E|-2-2--2-2--2-2--2-2-|

Verse (2:25)
e|-----------------------------------------------------------------------|
B|---------------------------------------3-3-3-3-2-2-2-2-5-5-5-5-3-3-3-3-|
G|-[2-2-2-2-2-2-2-2]---------------------2-2-2-2-2-2-2-2-2-2-2-2-2-2-2-2-|
D|--4-4-4-4-4-4-4-4-/-7-7-7-7-7-7-7-0----0-0-0-0-0-0-0-0-0-0-0-0-0-0-0-0-|
A|--4-4-4-4-4-4-4-4-/-7-7-7-7-7-7-7-0------------------------------------|
E|--2-2-2-2-2-2-2-2-/-5-5-5-5-5-5-5-0------------------------------------|

Chorus, Guitar 1 (3:02) (Play 3 Times)
e|-0-0-0-0-0-0-0-0---------------------------------------------------|
B|-2-2-2-2-2-2-2-2--0-0-0-0-0-0-0-0--3-3-3-3-2-2-2-2-5-5-5-5-3-3-3-3-|
G|-2-2-2-2-2-2-2-2--1-1-1-1-1-1-1-1--2-2-2-2-2-2-2-2-2-2-2-2-2-2-2-2-|
D|-2-2-2-2-2-2-2-2--2-2-2-2-2-2-2-2--0-0-0-0-0-0-0-0-0-0-0-0-0-0-0-0-|
A|-0-0-0-0-0-0-0-0--2-2-2-2-2-2-2-2----------------------------------|
E|------------------0-0-0-0-0-0-0-0----------------------------------|

Chorus, Guitar 2 (3:02) (Play 3 Times)
e|-5-5-5-5-5-5-5-5--7-7-7-7-7-7-7-7--9-9-9-9--7-7-7-7--5-5-5-5--7-7-7-7-|
B|----------------------------------------------------------------------|
G|----------------------------------------------------------------------|
D|----------------------------------------------------------------------|
A|----------------------------------------------------------------------|
E|----------------------------------------------------------------------|

"We couldn't win in the end..." (Play 3 Times)
e|-0-0-0-0-0-0-0-0---------------------------------------------------------------|
B|-2-2-2-2-2-2-2-2--0-0-0-0-0-0-0-0----------------------------------------------|
G|-2-2-2-2-2-2-2-2--1-1-1-1-1-1-1-1--7-7-7-7--9-9-9-9--11-11-11-11--13-13-13-13--|
D|-2-2-2-2-2-2-2-2--2-2-2-2-2-2-2-2----------------------------------------------|
A|-0-0-0-0-0-0-0-0--2-2-2-2-2-2-2-2--5-5-5-5--7-7-7-7---9--9--9--9--11-11-11-11--|
E|------------------0-0-0-0-0-0-0-0----------------------------------------------|

e|-----------|
B|-----------|
G|---13\7~---|
D|-----------|
A|---11\5~---|
E|-----------|
Tap to rate this tab
# A B C D E F G H I J K L M N O P Q R S T U V W X Y Z