Guitaretab - guitar tabs
Song name
# A B C D E F G H I J K L M N O P Q R S T U V W X Y Z

Sugarcult - What You Say tab

Intro:
e|-----------------xxxxx--------------------------------------------------|
B|-----------------xxxxx--------------------------------------------------|
G|--66----66----66-xxxxx--------------------------------------------------|
D|3-66-33-66-33-66-xxxxx--------------------------------------------------|
A|3-44-33-44-33-44-xxxxx--------------------------------------------------|
E|1----11----11----xxxxx--------------------------------------------------|

Chorus:x2
e|------------------------------------------------------------------------|
B|------------------------------------------------------------------------|
G|--66----66----66-----------66----66----66-------------------------------|
D|3-66-33-66-33-66-88888---3-66-33-66-33-66-88888-------------------------|
A|3-44-33-44-33-44-88888---3-44-33-44-33-44-88888-------------------------|
E|1----11----11----66666---1----11----11----66666-------------------------|

e|------------------------------------------------------------------------|
B|------------------------------------------------------------------------|
G|--66----66----66--------------------------------------------------------|
D|3-66-33-66-33-66-88888888888--------------------------------------------|
A|3-44-33-44-33-44-88888888888--------------------------------------------|
E|1----11----11----66666666666--------------------------------------------|

e|---------------------------------------------------------------xxxxxxx--|
B|---------------------------------------------------------------xxxxxxx--|
G|--66-----8-8-8----66-----8-8-8----66-----8-8-8-----66----------xxxxxxx--|
D|3-66-888-8-8-8--3-66-888-8-8-8--3-66-888-8-8-8---3-66-88888888-xxxxxxx--|
A|3-44-888-6-6-6--3-44-888-6-6-6--3-44-888-6-6-6---3-44-88888888-xxxxxxx--|
E|1----666--------1----666--------1----666---------1----66666666-xxxxxxx--|


============================================================================

(Guitar1):
e|-------------------------------------------------------------------------|
B|-------------------------------------------------------------------------|
G|-------------------------------------------------------------------------|
D|-666-3333-888-666-3333-888-666-3333-888-666-3333-888-66-3---------------|
A|-666-3333-888-666-3333-888-666-3333-888-666-3333-888-66-3---------------|
E|-444-1111-666-444-1111-444-444-1111-666-444-1111-666-44-1---------------|
[ Tab from: http://www.guitaretab.com/s/sugarcult/50289.html ]
(Guitar2):
e|-------------------------------------------------------------------------|
B|-------------------------------------------------------------------------|
G|-------------------------------6-5-88-1010-88-66-5-6h5h6h5h6h5h6---------|
D|-----------------------------8-------------------------------------------|
A|-666------888-666------888-6---------------------------------------------|
E|-----8888---------8888---------------------------------------------------|

============================================================================

(Both Guitars)
e|------------------------------------------------------------------------|
B|------------------------------------------------------------------------|
G|--66-----8-8-8----66-----8-8-8----66-----8-8-8-----66-------------------|
D|3-66-888-8-8-8--3-66-888-8-8-8--3-66-888-8-8-8---3-66-88888888----------|
A|3-44-888-6-6-6--3-44-888-6-6-6--3-44-888-6-6-6---3-44-88888888----------|
E|1----666--------1----666--------1----666---------1----66666666----------|

(Guitar1):
e|------------------------------------------------------------------------|
B|------------------------------------------------------------------------|
G|--66-------------66-------------66-------------66-----------------------|
D|3-66-88--8-8---3-66-88--8-8---3-66-88--8-8---3-66-88-8888888-3---------|
A|3-44-88--8-8---3-44-88--8-8---3-44-88--8-8---3-44-88-8888888-3---------|
E|1----66--6-6---1----66--6-6---1----66--6-6---1----66-6666666-1---------|

(Guitar2):
e|------------------------------------------------------------------------|
B|------------------------------------------------------------------------|
G|--66-------------66-------------66-------------66-----------------------|
D|3-66-66--6-6---3-66-66--6-6---3-66-66--6-6---3-66-66-6666666-3---------|
A|3-44-66--6-6---3-44-66--6-6---3-44-66--6-6---3-44-66-6666666-3---------|
E|1----44--4-4---1----44--4-4---1----44--4-4---1----44-4444444-1---------|


End:
e|------------------------------------------------------------------------|
B|------------------------------------------------------------------------|
G|--66----66----66-----------66----66----66-------------------------------|
D|3-66-33-66-33-66-88888---3-66-33-66-33-66-88888-88888-88888-88888--3----|
A|3-44-33-44-33-44-88888---3-44-33-44-33-44-88888-88888-88888-88888--3----|
E|1----11----11----66666---1----11----11----66666-66666-66666-66666--1----|
Related for What You Say tab