Guitaretab - guitar tabs
Song name
# A B C D E F G H I J K L M N O P Q R S T U V W X Y Z

Sugarcult - Say Im Sorry tab

Tabbed By: Josh (and Kate) 


I've must thank Kate heaps for this! She showed me the song and showed me how to play
it. All of the other tabs I have seen for this song are pretty dodgy and this tab sounds
correct. If you have any corrections you would like to share with me please email me:
joshy_star_01@hotmail.com Peace out!


Intro:

                  *Play this really softly*
|-------------------------------------------------------------|
|-------------------------------------------------------------|
|--5-5-5--5-5-5--4-4-4--4-4-4--3-3-3--3-3-3--3-3-3--3-3-3--4--|
|--5-5-5--5-5-5--4-4-4--4-4-4--3-3-3--3-3-3--3-3-3--3-3-3--4--|
|--3-3-3--3-3-3--2-2-2--2-2-2--1-1-1--1-1-1--1-1-1--1-1-1-2--|
|-------------------------------------------------------------|
   * *    * *     * *    * *   * *    * *    * *    * *        

|------------------------------------------------------------------|
|------------------------------------------------------------------|
|--5-5-5--5-5-5--4-4-4--4-4-4--3-3-3--3-3-3--3-3-3--3-3-3----------|
|--5-5-5--5-5-5--4-4-4--4-4-4--3-3-3--3-3-3--3-3-3--3-3-3--3-3--4--|
|--3-3-3--3-3-3--2-2-2--2-2-2--1-1-1--1-1-1--1-1-1--1-1-1-3-3--4--|
|----------------------------------------------------------1-1--2--|
   * *    * *     * *    * *   * *    * *    * *    * *            


Verse:

|-------------------------------------------------|
|-------------------------------------------------|
|-------------------------------------------------|
|--5-5--5-5---4-4--4-4---3-3--3-3--3-3--3-3-3--4--| 
|--5-5--5-5---5-5--5-5---3-3--3-3--3-3--3-3-3--4--|
|--3-3--3-3---2-2--2-2---1-1--1-1--1-1--1-1-1--2--|  

|------------------------------------------------|
|------------------------------------------------|
|------------------------------------------------|
|--5-5--5-5---4-4--4-4---3-3--3-3--3-3--3-3-3-3--| 
|--5-5--5-5---5-5--5-5---3-3--3-3--3-3--3-3-3-3--|
|--3-3--3-3---2-2--2-2---1-1--1-1--1-1--1-1-1-1--|  


Chorus:

|--------------------------------------|
|--------------------------------------|
|--5-5-5-5-----------------------------|
|--5-5-5-5--5-5-5-5--2-2-2-2--3-3-3-3--|
|--3-3-3-3--5-5-5-5--2-2-2-2--3-3-3-3--|
|-----------3-3-3-3--0-0-0-0--1-1-1-1--|
                                         x 2
|--------------------------------------|
|--------------------------------------|
|--5-5-5-5-----------------------------|
|--5-5-5-5--5-5-5-5--3-3-3-3--5-5-5-5--|
|--3-3-3-3--5-5-5-5--3-3-3-3--5-5-5-5--|
|-----------3-3-3-3--1-1-1-1--3-3-3-3--|


Post Chorus:

|-------------------------------------|
|-------------------------------------|
|--3-3-3-3-3-3-3-3-3-3-3-3-3----------|
|--3-3-3-3-3-3-3-3-3-3-3-3-3--3-3--4--|
|--1-1-1-1-1-1-1-1-1-1-1-1-1--3-3--4--|
|-----------------------------1-1--2--|

Bridge:
[ Tab from: http://www.guitaretab.com/s/sugarcult/52847.html ]
|------------------------------------|
|------------------------------------|
|--7-7-7-7-7-7-7-7-------------------|
|--7-7-7-7-7-7-7-7--5-5-5-5-5-5-5-5--|
|--5-5-5-5-5-5-5-5--5-5-5-5-5-5-5-5--|
|-------------------3-3-3-3-3-3-3-3--|

|------------------------------------|
|------------------------------------|
|--4-4-4-4-4-4-4-4--3-3-3-3-3-3-3-3--|
|--4-4-4-4-4-4-4-4--3-3-3-3-3-3-3-3--|
|--2-2-2-2-2-2-2-2--1-1-1-1-1-1-1-1--|
|------------------------------------|

|------------------------------------|
|------------------------------------|
|--7-7-7-7-7-7-7-7-------------------|
|--7-7-7-7-7-7-7-7--5-5-5-5-5-5-5-5--|
|--5-5-5-5-5-5-5-5--5-5-5-5-5-5-5-5--|
|-------------------3-3-3-3-3-3-3-3--|

|----------------------------------------------------|
|----------------------------------------------------|
|--4-4-4-4-4-4-4-4--3-3-3-3-3-3-3-3-3-3-3-3-3-3-3-3--|
|--4-4-4-4-4-4-4-4--3-3-3-3-3-3-3-3-3-3-3-3-3-3-3-3--|
|--2-2-2-2-2-2-2-2--1-1-1-1-1-1-1-1-1-1-1-1-1-1-1-1--|
|----------------------------------------------------|


Last Chorus:

|--------------------------------------|
|--------------------------------------|
|--7-7-7-7-----------------------------|
|--7-7-7-7--7-7-7-7--4-4-4-4--5-5-5-5--|
|--5-5-5-5--7-7-7-7--4-4-4-4--5-5-5-5--|
|-----------5-5-5-5--2-2-2-2--3-3-3-3--|
                                         x 2
|--------------------------------------|
|--------------------------------------|
|--7-7-7-7-----------------------------|
|--7-7-7-7--7-7-7-7--5-5-5-5--7-7-7-7--|
|--5-5-5-5--7-7-7-7--5-5-5-5--7-7-7-7--|
|-----------5-5-5-5--3-3-3-3--5-5-5-5--|


Ending:

|----------------------------------------|
|----------------------------------------|
|--5-5-5-5-5-5-5-5-5-5-5-5-5-------------|
|--5-5-5-5-5-5-5-5-5-5-5-5-5--3-3--4--5--|
|--3-3-3-3-3-3-3-3-3-3-3-3-3--3-3--4--5--|
|-----------------------------1-1--2--3--|


Song Order:

Intro
Verse
Chorus
Post Chorus
Verse
Chorus
Bridge
Last Chorus
Ending


Lyrics:

She's perfect so perfect
Some things make-up can't fix
And I'm perfectly incapable of being with you
If you wanna get down
Wrap me up in plastic because I'm feeling pornographic now
If you wanna get down
I think I'm feeling sick again
We're making up with sex again

'Cause all I ever do is say I'm sorry
Words come out just like ear candy
And all I ever do is say I'm sorry
The bitter pill is as sweet as candy now

If you wanna break down
You never listen to your nasty dispossition now
If you wanna break down
I got all the answers and words don't ever matter

'Cause all I ever do is say I'm sorry
Words come out just like ear candy
And all I ever do is say I'm sorry
The bitter pill is as sweet as candy now

I'm on the outside
I'm on the outside
I'm on the outside
Knocking on the inside
I'm on the outside
I'm on the outside
I'm on the outside
Breaking on the inside

All I ever do is say I'm sorry
Words come out just like ear candy
And all I ever do is say I'm sorry
The bitter pill is as sweet as candy

All I ever do is say I'm sorry
Words come out just like ear candy
And all I ever do is say I'm sorry
The bitter pill is as sweet as candy now
Related for Say Im Sorry tab
Say Im Sorry chords by Sugarcult