Guitaretab - guitar tabs
Song name
# A B C D E F G H I J K L M N O P Q R S T U V W X Y Z

Sugarcult - Start Static tab

I didn't do these, I just got all the good
Start Static tabs and put them all together 
so its easier to find them.

1  You're The One
2  Stuck in America
3  Hate Every Beautiful Day
4  Bouncing Off the Walls
5  Saying Goodbye
6  Daddy's Little Defect
7  Lost In You
8  Pretty Girl (The Way)
9  Crashing Down
10 How Does It Feel?
11 I Changed My Name

Note: Unfortunately i couldnt find
a tab for "Lost In You", And I 
couldn't decifer it myself.

1. You're The One
By Kyle Wolf (Unregistered)

Tuning:Normal

sliding part :

e|---------------------------------------------------------------------------|
B|---------------------------------------------------------------------------|
G|---------------------------------------------------------------------------|
D|-------999\8\777/8/999\8\777/8/999\8\777/8/999-----------------------------|
A|-------999\8\777/8/999\8\777/8/999\8\777/8/999-----------------------------|
E|-------777\6\555/6/777\6\555/6/777\6\555/6/777-----------------------------|

Repeat as need : 

"Kind-of-a-solo"

e|---------------------------------------------------------------------------|
B|---------0-00-0000/7-7-77/10-10-101010\5\4--4/5-----------------next line--|
G|---------------------------------------------------------------------------|
D|---------------------------------------------------------------------------|
A|---------------------------------------------------------------------------|
E|---------------------------------------------------------------------------|

e|---------------------------------------------------------------------------|
B|---------0-00-0000/7-7-77/10-1010\9-9/11/12 slide down---------------------|
G|---------------------------------------------------------------------------|
D|---------------------------------------------------------------------------|
A|---------------------------------------------------------------------------|
E|---------------------------------------------------------------------------|

Then you play the sliding part at the beginning again

e|---------------------------------------------------------------------------|
b|---------------------------------------------------------------------------|
g|--7------5-------4---------------------------------------------------------|
d|--7------5-------4<<<< this part connects to the next part below this part-|
a|--5------3-------2---------------------------------------------------------|
e|---------------------------------------------------------------------------|

----------------------^^^^^ this part is when the singer say's "you the one"-|



Below is the refrain: listen to the song to see the rythem and how many
                        times to play

e|---------------------------------------------------------------------------|
B|---------------------------------------------------------------------------|
G|-4-------------------------------------------------------------------------|
D|-4---4-/-5-/-8-\-7----back to beginning of this bar------------------------|
A|-2---4-/-5-/-8-\-7---------------------------------------------------------|
E|-----2-/-3-/-6-\-5---------------------------------------------------------|

back to sliding part
 really you have to listen to the song and figure it out... 
i have provided the notes and everything you just have to take the time to 
figure  the rythems out.

Second time he dose the "kind-of-a-solo"
e|---------------------------------------------------------------------------|
B|0-00-0000/7-7-77/10-10-101010\5\4--5/7 5-5555555-4-2-0-7-10-11-12----------|
G|---------------------------------------------------------------------------|
D|---------------------------------------------------------------------------|
A|---------------------------------------------------------------------------|
E|---------------------------------------------------------------------------|

Refrain part again 

then the beginning part againg while he screems

honestly - this is my first time that if ever cared to wright a guitar tab.
I am so board right now so i figured this one out. The whole song is there
you just need to listen to it to figure out what to play and when.  Every
not in the song is in this guitar tab you just need to have some kind of 
talent and take the time to figure it out.
I leave it to the reader.  ENJOY! 

E-mail me for questions or stuff i need to fix... i dont think there
is anything to fix tho... but just in case : 

drumstckscorcher@hotmail.com

| /  slide up
| \  slide down
| h  hammer-on
| p  pull-off
| ~  vibrato
| +  harmonic
| x  Mute note
===============================================================================
 
2. Stuck In America
By Blink182rocks

This song is tuned down a half step.
eb
Bb
Gb
Db
Ab
Eb

-7---7---7--7---------------------------------
---7---7---7--7-------------------------------
----------------------------------------------
----------------------------------------------
----------------------------------------------
----------------------------------------------
introduction

-------------------------------|--------------------------
-------------------------------|--------------------------
-4-------9---6----4-----9--6-2x|-4--------9--9--9--9------
-4---4---9---6----4--4--9--6---|-4--4--4--9--9--9--9-4x-9-
-2---4---7---4----2--4--7--4---|-2--4--4--7--7--7--7------
-----2---------------2---------|----2--2------------------
"Today I changed..."

--------------------------------|-----------
--------------------------------|-----------
-4----------8-----11-/13--------|-----------
-4--4--4----x------x---x-----2x-|-----------
-2--4--4----6------9-/11--------|-----------
----2--2------------------------|-----------
2nd guitar at the part where there are no drums
Vere 1
---------------------------------
---------------------------------
-4-4-4-4-4-4-4-4-----------------
-4-4-4-4-4-4-4-4-4-4-4-4-4-4-4-4-
-2-2-2-2-2-2-2-2-4-4-4-4-4-4-4-4-
-----------------2-2-2-2-2-2-2-2-
P.M..............................
                          End Of Verse 1
----------------------------------------|
----------------------------------------|
-----------------6-6-6-6-6-6-6-6--6/8---|
-2-2-2-2-2-2-2-2-6-6-6-6-6-6-6-6--x/x-x2|
-2-2-2-2-2-2-2-2-4-4-4-4-4-4-4-4--4/6---|
-0-0-0-0-0-0-0-0------------------------|
P.M......................................

-------------------------------------|
-------------------------------------|
-4-4-4-4---------6-6-6-6-9-9-9-9-----|
-4-4-4-4-4-4-4-4-6-6-6-6-9-9-9-9--3x-|
-2-2-2-2-4-4-4-4-4-4-4-4-7-7-7-7-----|
---------2-2-2-2---------------------|

---------------------------------
---------------------------------
-4-4-4-4-------------------------
-4-4-4-4-4-4-4-4-2-2-2-2-2-2-2-2-
-2-2-2-2-4-4-4-4-2-2-2-2-2-2-2-2-
---------2-2-2-2-0-0-0-0-0-0-0-0

"Everybody's talking bout..." "Running just to get awaaaaaay.."

Riff x2
-----------------------------------------------------------|
-----------------------------------------------------------|
-4-4-4-4-4-4-4-----------------6-6-6-6-6-6-6---------------|
-4-4-4-4-4-4-4-2-2-2-2-2-2-2-2-6-6-6-6-6-6-6-2-2-2-2-2-2-2-|
-2-2-2-2-2-2-2-2-2-2-2-2-2-2-2-4-4-4-4-4-4-4-2-2-2-2-2-2-2-|
---------------0-0-0-0-0-0-0-0---------------0-0-0-0-0-0-0-|
Chorus "Stuck in America..."

-----------------------------------------------
-----------------------------------------------
-4-4-4-4-4-4-4----8-6-4-6-6-6-6-6-6-6--9-8-4-6-
-4-4-4-4-4-4-4-2--x-x-x-6-6-6-6-6-6-6--x-x-x-x-
-2-2-2-2-2-2-2-2--6-4-2-4-4-4-4-4-4-4--7-6-2-4-
---------------0-------------------------------
Guitar 2 chorus

-2-----2-----2-----2----------|---
---4-----2-----4-----2--------|---
-----4-----4-----4-----4------|---
---------------------------4x-|---
------------------------------|---
------------------------------|---
Verse 2

----------------------------------------------------
-------------------------------------------8/11-/13-
-8-8-8p6h8p6-8-8-8-6--8-8-8p6h8p6-8-8-6----x/-x-/-x-
----------------------------------------9--6/-9-/11-
----------------------------------------------------
----------------------------------------------------


----------------------------------------
---------------------------------12--12-
-9b11-9-8------9b11b9--11b13b11--11--11-
----------9-9---------------------------
----------------------------------------
----------------------------------------
Guitar Solo

--------------------------------------------------------
--------------------------------------------------------
-13b15--16-14----14h16-9-8--8-9-11--11-9-8--9b11--11b13-
--------------16----------------------------------------
--------------------------------------------------------
--------------------------------------------------------

=============================================================================

3. Hate Every Beatiful Day
By Julie (Unregistered)

Intro:
Guitar 1
e|----4-2----4-2----4-2------------|       |---4-2---4-2---4-2---------| Let
B|--0------0------0------0--4p2h4--|       |-0-----0-----0------0/4----| ring
G|---------------------------------|x3     |---------------------------|
D|---------------------------------|       |-----4th-------------------|
A|---------------------------------|       |------time-----------------|
E|---------------------------------|       |---------------------------|

Guitar 2
e|------------------------------|
B|------------------------------|
G|--------------44------66\-----|x4
D|66-----22-----44------66\-----|
A|66-----22-----22------44\-----|
E|44-----00---------------------|


In the first 4 measures of the verse, you can mess around with this note:

e|---|
B|-4-|
G|---|
D|---|
A|---|
E|---|

Listen to the recording to determine what to do with it.

Verse:
e|------------------------------|
B|------------------------------|
G|--------------44------66\-----|x2
D|66-----22-----44------66\-----|
A|66-----22-----22------44\-----|
E|44-----00---------------------|   


Bridge:
e|----------------------|
B|----------------------|
G|----------4444-6666---|x2
D|6666-2222-4444-6666---|
A|6666-2222-2222-4444---|
E|4444-0000-------------|
  [Palm Muted.........]

Chorus:
e|--------------------------------------|    |-------|
B|--------------------------------------|    |-4--4--|
G|------------------4-4-4-44-6-6-6-66---|x3  |-4--3--|
D|6-6-6-66-2-2-2-22-4-4-4-44-6-6-6-66---|    |-------|
A|6-6-6-66-2-2-2-22-2-2-2-22-4-4-4-44---|    |-------|
E|4-4-4-44-0-0-0-00---------------------|    |-------|

Solo:
e|-----------------------------------------------------------|
B|-----------------------------------------------------------|
G|---6p4---6----------------------6p4--6----------4--6--4----|
D|------6p4----6-4--6--4--1--4---4---6----6-4--6-----------6-|
A|-----------------------------------------------------------|
E|-----------------------------------------------------------|

e|---------------------------------|   |----|
B|---------------------------------|   |----| Second time
G|-8-8-8-8-4-4-4-4-3-3-3-3-1-1-1-1-|x2 |-1--| Let ring
D|---------------------------------|   |----|
A|---------------------------------|   |----|
E|---------------------------------|   |----|

For the end, just play the same 4 chords you've been playing the entire song.

| /  slide up
| \  slide down
| h  hammer-on
| p  pull-off
| .  palm muted

===============================================================================

4. Bouncing Off The Walls
By Katelyn (Unregistered)

this song is great and easy, and hey, I have the first part of the solo,
isn't that special! so lets get started, sha;; we.

e-------------------
b-------------------
d-------6-6-4-4-4-4- x8 on the first refrain
g--4-4--6-6-4-4-4-4-
a--4-4--4-4-2-2-2-2-
E--2-2--------------

I'm bouncing off the walls again, I'm looking like a fool again
I threw away my reputation, one more song for the RADIO STATION
I'm bouncing off the walls again, I'm looking like a fool again
waking up on the bathroom floor pull myself back toghether just to fall once more

e-------------------------------------------------------
b-------------------------------------------------------
g--8-4-6-8----8-4-6-8-8--8-4-6-8-8--8-4-6-8-8---6-6-6-6-
d--8-4-6-8-8--8-4-6-8-8--8-4-6-8-8--8-4-6-8-8-2-6-6-6-6-verse
a--6-2-4-6-8--6-2-4-6-8--6-2-4-6-8--6-2-4-6-8-2-4-4-4-4-
E----------6---------------------6----------6-0---------

My heart is beating out of my chest, this town is still making me sick 
And every penny from my last pay check I've blown it on you

e--------------------
b--------------------
g--------------------
d--2-2-4-4-2-2-2-2-2- x4 on second refrain
a--2-2-4-4-2-2-2-2-2-
E--2-2---------------

I'm bouncing off the walls again, I'm looking like a fool again
So go ahead and take a picture, and hang it up so you can tear me down

e--------------------------------------------
b--------------------------------------------
g--8-4-6-8----8-4-6-8----8-4-6-8-----6-6-6-6-
d--8-4-6-8-8--8-4-6-8-8--8-4-6-8-8-2-6-6-6-6-verse
a--6-2-4-6-8--6-2-4-6-8--6-2-4-6-8-2-4-4-4-4-
E----------6----------6----------6-0---------

I don't care cause I'm still here
And I've go nothing left to lose with all the years I've wasted on you

(solo)
e--4-0-4-0-5-5-5-5-5--0-4-0-7-7-7-7-7-7--4-0-4-0-------------7-
b------------------------------------------------4-5-7-5-4-5---
g--------------------------------------------------------------
d--------------------------------------------------------------
a--------------------------------------------------------------
E--------------------------------------------------------------

(optional)You can play the verse line on this part
Mom and Daddy's got the best cocaine
ritalin's never ganna feel the same
24 hours on an empty brain
I got my finger on th triger and your in my way

repete refrain and you're done
any questions, comments, or complaints e-mail me at sum4207@yahoo.com Peace out
and rock on!!! :) love Katelyn

============================================================================

5. Saying Goodbye
By CoolLoser1986

/=slide
x=rest
h=hammeron
po=pulloff


Intro/Chorus {

Guitar 1 (x4) {

e|---------------------------------------------------------|
B|---------------------------------------------------------|
G|----------5-5---5----------------------------------------|
D|---3-3---35-5---58-8---8/7/8/7---------------------------|
A|---3-3---33-3---38-8---8/7/8/7---------------------------|
E|---1-1---1-------6-6---6/5/6/5---------------------------|

}


Guitar 2 {

(x2) {

e|---13--13--15--15--13--13--13--15------------------------|
B|-----13--13--13--13--13--13--13--13----------------------|
G|---------------------------------------------------------|
D|---------------------------------------------------------|
A|---------------------------------------------------------|
E|---------------------------------------------------------|

}

e|---13--15--13--15--13--13--13--15--13--13--15--15--------------------------|
B|-----13--13--13--13--13--13--13--13--13--13--13--13h14po13h14po13h14-------|
G|---------------------------------------------------------------------------|
D|---------------------------------------------------------------------------|
A|---------------------------------------------------------------------------|
E|---------------------------------------------------------------------------|

}

}


Verse {

Guitar 1 {

e|---------------------------------------------------------|
B|---------------------------------------------------------|
G|---------------------------------------------------------|
D|---**Bass Only**--7-5--**Play Intro/Chorus (x2)**--------|
A|------------------7-5------------------------------------|
E|------------------5-3------------------------------------|

}

Guitar 2 {

e|---------------------------------------------------------|
B|-------------------------6--5--6--6--6--5----------------|
G|------------------------5--5--5--5--5--5-----------------|
D|---**Bass Only**-----------------------------------------|
A|---------------------------------------------------------|
E|---------------------------------------------------------|

}


Pre-Chorus (x2/x4) {

e|---------------------------------------------------------|
B|---------------------------------------------------------|
G|---5555-7777---------------------------------------------|
D|---5555-7777-88888888------------------------------------|
A|---3333-5555-88888888------------------------------------|
E|-------------66666666------------------------------------|

}

Bridge {
Guitar 1 {

e|---------------------------------------------------------|
B|---------------------------------------------------------|
G|---14-12--10-9-10---10-9-10---10-9-10---10-12-17---------|
D|---14-12-------------------------------------------------|
A|---12-10--8--7-8----8--7-8----8--7-8----8--10-15---------|
E|---------------------------------------------------------|

}

Guitar 2 {

e|---------------------------------------------------------|
B|---------------------------------------------------------|
G|------------------------------17171717999910/12/10/9/5---|
D|---------------------------------------------------------|
A|------------------------------1515151577778-/10/8-/7/3---|
E|---------------------------------------------------------|

===========================================================================

6. Daddy's Little Defect
By mojomike

Intro:

e----------------------------------------------------------|
B--444444444444444-----4444-----4444-----4444--------------|
G--------------------------------------------x6--6-x-------|
D-----------------x6--6----x6--6----x6--6----x6--6-x4--4-x-|
A-----------------x6--6----x6--6----x6--6----x4--4-x4--4-x-|
E-----------------x4--4----x4--4----x4--4-----------2--2-x-|

e-----------------------------------------|
B-----4444-----4444-----4444--------------|
G---------------------------x6--6-x-------|
D-6--6----x6--6----x6--6----x6--6-x4--4-x-|
A-6--6----x6--6----x6--6----x4--4-x4--4-x-|
E-4--4----x4--4----x4--4-----------2--2-x-|

  Verse 1:
e-----------------------------------------|
B-----------------------------------------| x2
G---------------------------x6--6-x-------|
D-6--6----x6--6----x6--6----x6--6-x4--4-x-|
A-6--6----x6--6----x6--6----x4--4-x4--4-x-|
E-4--4----x4--4----x4--4-----------2--2-x-|
  then - strum each chord as needed
e--------------------------------------------------------|
B--------------------------------------------------------|
G--------6-----------6-------------6---------------------|
D--6-----6-----6-----6--4----6-----6-----6-------2--xxxx-|
A--6-----4-----6-----4--4----6-----4-----6-------2--xxxx-|
E--4-----------4--------2----4-----------4-------0--xxxx-|
[ Tab from: http://www.guitaretab.com/s/sugarcult/86114.html ]
  Chorus:  strum each chord as needed
e---------------------------------------|
B---------------------------------------|
G-------6---------6---------6-----------|
D--6----6----6----6----6----6----2----4-|
A--6----4----6----4----6----4----2----4-|
E--4---------4---------4---------0----2-|

after chorus play this again
e-----------------------------------------|
B-----4444-----4444-----4444--------------|
G---------------------------x6--6-x-------|
D-6--6----x6--6----x6--6----x6--6-x4--4-x-|
A-6--6----x6--6----x6--6----x4--4-x4--4-x-|
E-4--4----x4--4----x4--4-----------2--2-x-|

Verse 2:

e-----------------------------------------|
B-----------------------------------------| x2
G---------------------------x6--6-x-------|
D-6--6----x6--6----x6--6----x6--6-x4--4-x-|
A-6--6----x6--6----x6--6----x4--4-x4--4-x-|
E-4--4----x4--4----x4--4-----------2--2-x-|
  then - strum each chord as needed
e-------------------------------------------------------|
B-------------------------------------------------------|
G--------6-----------6-------------6--------------------|
D--6-----6-----6-----6--4----6-----6-----6-------2----4-|
A--6-----4-----6-----4--4----6-----4-----6-------2----4-|
E--4-----------4--------2----4-----------4-------0----2-|
   behind this second part the lead just strums this constantly
e---4...-
B---4...-
G--------|
D--------|
A--------|
E--------|

  Chorus 2:  strum each chord as needed
e------------------------------------|
B------------------------------------| x2
G-------6---------6---------6----8---|
D--6----6----6----6----6----6----8---|
A--6----4----6----4----6----4----6---|
E--4---------4---------4-------------|

   Bridge:
e--------------------|
B---9~----8-\4-/6-4~-|
G---x-------------x--|
D---6~------------6~-|
A--------------------|
E--------------------|
 then  ( make sure u get the palm multing rite )
e-------------------|
B--9998889998889988-| x4
G--8888888888888888-|
D-------------------|
A-------------------|
E-------------------|
pm  .. .. .. .. . .

e-------------------------------------------------------------------|
B--xx99xx99------------------------xx99xx99-------------------------|
G--xxxxxxxxxx66xx66xx55xx55xx88xx88xxxxxxxxxx66xx6688888888888x-----|
D--xx66xx66xxxxxxxxxxxxxxxxxxxxxxxxxx66xx66xxxxxxxxxxxxxxxxxxxx4--4-|
A----------xx44xx44xx33xx33xx66xx66--------xx44xx4466666666666x4--4-|
E--------------------------------------------------------------2--2-|

 last verse
e-----------------------------------------|
B-----------------------------------------|
G---------------------------x6--6-x-------|
D-6--6----x6--6----x6--6----x6--6-x4--4-x-|
A-6--6----x6--6----x6--6----x4--4-x4--4-x-|
E-4--4----x4--4----x4--4-----------2--2-x-|

e----------------------------------------------------------------|
B----------------------------------------------------------------|
G----------------------------------------------------------------|
D-6--6----x6--6-----6--6-----222222222222222244444444------------|
A-6--6----x6--6-----6--6-----222222222222222244444444*pickslide*-|
E-4--4----x4--4-----4--4-----000000000000000022222222------------|

 Final Chorus  - strum each chord as needed
e----------------------------------|
B----------------------------------| x2
G--4---------4---------4-----------|
D--4----2----4----2----4----2----4-|
A--2----2----2----2----2----2----4-|
E-------0---------0---------0----2-|

e----------------------------------|
B----------------------------------|
G--4---------4---------4-----------|
D--4----2----4----4----4----2----4-|
A--2----2----2----4----2----2----4-|
E-------0---------2---------0----2-|

e----------------------------------|
B----------------------------------|
G--4----9----4---------4-----------|
D--4----9----4----4----4----2----4-|
A--2----7----2----4----2----2----4-|
E-----------------2---------0----2-|

lead - plays this only during the last 2 bars of the above

e------------------------------------------------------------------|
B--7--5--4-5--4-5-7--5--4-5--4--0-7--5--4-5--4-5--7777777777777777-|
G------------------------------------------------------------------|
D------------------------------------------------------------------|
A------------------------------------------------------------------|
E------------------------------------------------------------------|

e----------------------------------------------------------------------------------|
B--7--5--4-5--4-5-7--5--4-5--4--0-7--5--4------------------------------------------|
G-----------------------------------------9999999911111111111111111111111111111111-|
D-----------------------------------------xxxxxxxx-x-x-x-x-x-x-x-x-x-x-x-x-x-x-x-x-|
A-----------------------------------------77777777-9-9-9-9-9-9-9-9-9-9-9-9-9-9-9-9-|
E----------------------------------------------------------------------------------|

Ending:
       rhythm
e------------------------------------------------------|
B------------------------------------------------------|
G------------------------------------------------------|
D--2222222222222222444444444---------------------6-6-\-|
A--2222222222222222444444444---------------------6-6-\-|
E--0000000000000000222222222---------------------4-4-\-|
       lead
e------------------------------------------------------|
B-----------------------------------------444444-------|
G--9999999999999999111111111111111111------------------|
D--xxxxxxxxxxxxxxxx-x-x-x-x-x-x-x-x-x-----------x6-6-\-|
A--7777777777777777-9-9-9-9-9-9-9-9-9-----------x6-6-\-|
E-----------------------------------------------x4-4-\-|
pm ................

===========================================================================

7. Lost In You
Again, Sorry I couldnt get a tab.

===========================================================================

8. Pretty Girl (The Way)
by zman919191

Tuned up a half step (F-A#-D#-G#-C-F) OR use a capo on first fret

Intro Part I:
------0-------0-------0-------0-------------------------------------|
--1-------0-------1-------0--------------1-------1---1---1-------1--|
----2---2---2---2---2---2---2---2----2-------4---------------4------|
---------------------------------------3---3---3---3---3---3---3---3|
--------------------------------------------------------------------|
--------------------------------------------------------------------|

Intro Part II:
(Guitar 1)
----13--12--------------------------13--12----------------------|
------------13------------------------------13------------------|
------------------14------14----------------------14------14----|
----------------------14------14----------------------14--------|
----------------------------------------------------------------|
----------------------------------------------------------------|

Intro Part II:
(Guitar 2)
-0-0--0---0-0--0---0-0--0---0-0--0---0-0--0---0-0--0---0-0--0---------|
-1-1--1---0-0--0---3-3--3---1-1--1---1-1--1---0-0--0---3-3--3---------|
-2-2--2---2-2--2---2-2--2---2-2--2---2-2--2---2-2--2---2-2--2---------|
-2-2--2---2-2--2---3-3--3---3-3--3---2-2--2---2-2--2---3-3--3---------|
-0-0--0---0-0--0---0-0--0---0-0--0---0-0--0---0-0--0---0-0--0---------|
----------------------------------------------------------------5-7-5-|

Pre-chorus:
-----------------------------------------------------------------|
---1---1---1---1---0---0---0---0---3---3---3---3---1---1---1---1-|
-2---2---2---2---2---2---2---2---2---2---2---2---2---2---2---2---|
-----------------------------------------------------------------|
-----------------------------------------------------------------|
-----------------------------------------------------------------|

Chorus:
--------------------------------------------|
--------------------------------------------|
----2---------2---------2---------2--4--5-4-|
----2----5----2----5----2----5----2--4--3-4-|
----0----5----0----5----0----5----0--2--3-2-|
---------3---------3---------3--------------|

Interlude
(Guitar 1)
e|---------------------------------------------|
B|---------------------------------------------|
G|--2-2-2-2--4-4-4-4--7-7-7-7--10-10-9-9-------|
D|--2-2-2-2--4-4-4-4--7-7-7-7--10-10-9-9-------|
A|--0-0-0-0--2-2-2-2--5-5-5-5---8--8-7-7-------|
E|---------------------------------------------|

Interlude
(Guitar 2)
Distortion w/wah or chorus effect
e|------------------------------------------------|
B|------------------------------------------------|
G|------------------------------------------------|
D|------------------------------------------------|
A|-0~0~0~0~--2~2~2~2~--5~5~5~5~--8-7~-------------|
E|------------------------------------------------|

VERSE 1 again with slight variation
NO INSTRUMENTALS
CHORUS
INTERLUDE

OUTRO
(casualy pick)
Clean Channel
---------------------------------------------------------------------|
-------------------------------5-------5--------4-------4----------2-|
---5~--4~---7~---10~--9~---5-------4---------5------4------------0---|
-----------------------------7---7---7---7-----2--2---2--2-----2-----|
-------------------------------------------------------------0-------|
---------------------------------------------------------------------|

===========================================================================

9. Crashing Down
By Unregistered

Intro
e|------------------------------------------------------------------|
B|------------------------------------------------------------------|
G|-----7----------------------6~h7~-----7----------------------6~h7~|
D|---7---------9-------4/-----7~------7---------9-------4/-----7~---|
A|-5---------9-------5-5/---7~------5---------9-------5-5/---7~-----|
E|-------0-7-----0-3------5~--------------0-7-----0-3------5~-------|

riff 1
e|------------------------------------------------------------|
B|-------------3----------------3-----------------------------|
G|---------0--------0-------0-------0-------------------------|
D|-------4---4----4---4---4---4---4---4-----------------------|
A|--0--2----------------2-------------------------------------|
E|------------------------------------------------------------|

verse
e|---------------------------------------------------|
B|-----------------3---------------------------------|
G|------7-7--------4-------4--------6----------------|
D|----7---7------4-4-------5------6------------------|
A|--5--------0-2-----0---5------7--------------------|
E|---------------------3------5----------------------|


e|--------------------------------------------------------|
B|-----------------3-------------------3~--------x--------|
G|------7-7--------4-------4--------0--0~--------x--------|
D|----7---7------4-4-------5------4-4--4~--------x--------|
A|--5--------0-2-----0---5----0-2---2---------------------|
E|---------------------3----------------------------------|

verse 2
guitar 1 plays the verse riff
guitar 2 plays this:
e|-----------------------------------------------------|
B|-------10~-------------------------------------------|
G|-----9-------------12--------------------------------|
D|---7------------------10-10h12-10--------------------|
A|-----------------------------------------------------|
E|-----------------------------------------------------|

e|-0-0-0-0-00-0-0-0-0-00-0-0-0-0-00-0-0-0-0-00--------|
B|-5-5-5-5-55\3-3-3-3-33-5-5-5-5-55\3-3-3-3-33--------|
G|-7-7-7-7-77\5-5-5-5-55-7-7-7-7-77\5-5-5-5-55--------|
D|-0-0-0-0-00-0-0-0-0-00-0-0-0-0-00-0-0-0-0-00--------|
A|----------------------------------------------------|
E|----------------------------------------------------|

fill 1
e---------------|
B---------------|
G---------------|
D-x-x-x-x-------|
A-x-x-x-x-------|
E-x-x-x-x-------|

chorus (guitar 1):
D5      B5       G5    A5
we come crashing down, everytime
D5      B5       G5    A5   fill 1
we go this far again
D5      B5       G5    A5
we come tumbling down, everytime
D5      B5       G5    A5   fill 1
we go this far again

chorus guitar 2 - 2x:
e------------------------------------------------------------------------------|
B------------------------------------------------------------------------------|
G-7-7-7-77-4-4-4-44-------------------7-7-7-7-9-9-9-9-12-12-12-12-11-11-11-11--|
D-x-x-x-xx-x-x-x-xx-5-5-5-55-7-7-7-77-x-x-x-x-x-x-x-x--x--x--x--x--x--x--x--x--|
A-5-5-5-55-2-2-2-22-x-x-x-xx-x-x-x-xx-5-5-5-5-7-7-7-7-10-10-10-10--9--9--9--9--|
E-------------------3-3-3-33-5-5-5-55------------------------------------------|

guitar 1: riff 1
guitar 2 (at the end of riff 1):
e------------|
B------------|
G--11/12\11--|
D------------|
A---9/10\9---|
E------------|

repeat verse 2 (w/ different lyrics):

repeat fill 1:

repeat chorus

bridge
guitar 1 - 2x:
e----5-------------------------------------------------------|
B--7---5---5---8---8---5---5---------------------------------|
G--------7---7---7---7---7---7-------------------------------|
D------------------------------------------------------------|
A------------------------------------------------------------|
E------------------------------------------------------------|


guitar 2 (comes in on 2nd time):
e-------------------------------------------------------------------------|
B-------------------------------------------------------------------------|
G--7--6--7-----------------------7-7-7-7-9-9-9-9-12-12-12-12-11-11-11-11--|
D--------------------------------x-x-x-x-x-x-x-x--x--x--x--x--x--x--x--x--|
A--5--4--5-----------------------5-5-5-5-7-7-7-7-10-10-10-10--9--9--9--9--|
E-------------------------------------------------------------------------|

guitar 1 and 2 plays the chorus
guitar 3 Solo

Solo
e-----------------------------------------------------------|
B--7-10--5---5---8---8---5---5---7-10--5---5---8-10-12-10---|
G--7--7--7-7-7-7-7-7-7-7-7-7-7-7-7--7--7-7-7-7-7--9-11-11---|
D-----------------------------------------------------------|
A-----------------------------------------------------------|
E-----------------------------------------------------------|

outro chorus:
chorus
D5-BREAK B5       G5    A5
we come  crashing down, everytime
D5      B5       G5    A5   fill 1
we go this far again
D5      B5       G5    A5
we come tumbling down, everytime
D5      B5       G5    A#5   C5 fill 1
we go this far again
D5      B5       G5    A5
we come crashing down
D5      B5       G5    A5
we come tumbling down
D5      B5       G5    A5
we come crashing down, everytime
D5      B5       G5    A5   fill 1
we go this far again

riff 1 - 2x

============================================================================

10. How Does It Feel
By Danny (Unregistered)

Email at guitarfetish15@yahoo.com to thank me. -Danny

*Standard Tuning*

Intro

Start Riff        Main1
|--------------| |-------------------------------------|
|--------------| |------------------------/10--10------|
|--------------| |-8-8-8---8-8-8---8-8-8--/--10--10----|3x(after goto main2) 
|--88888--8\-3-| |-x-x-x---x-x-x---x-x-x---------------|
|--88888--8\-3-| |-6-6-6---6-6-6---6-6-6---------------|
|--66666--6\-1-| |-------------------------------------|
   ^Mute^                                 ^slide up

Main2
|----------------------------|**NOTE: It's your preference to mute the
|----------------------------| D string... play it loud if u want,
|-8-8-8---8-8-8---8-8-8-8-\--| either way it still sounds good.**
|-x-x-x---x-x-x---x-x-x-x-\--|
|-6-6-6---6-6-6---6-6-6-6-\--|
|----------------------------|
                          ^slide down but not too far then go into verse

Verse1
|-----------------------------| 
|-----------------------------|
|---------------5------8------|x1 Then Play Verse2
|-8------3------5-(x8)-8-(x8)-|
|-8-(x8)-3-(x8)-3------6------|
|-6------1--------------------|
   ^Mute This Entire Piece^

Verse2
|---------------------------------------------------------------------| 
|-------------------------**---***----**---***------------------------|
|-**---***----**---***--/555-5-555-5/888-8-888-8\---------------------|
|-88-8-888-8\333-3-333-3/555-5-555-5/888-8-888-8\3---3---3----3-3-----|
|-88-8-888-8\333-3-333-3/333-3-333-3/666-6-666-6\3---3---3----3-3-----|
|-66-6-666-6\111-1-111-1-------------------------1---1---1----1-1-----|
 (This riff is a mix of mutes and non mutes... all the mutes have a *)

Chorus
|-------------------------------------------------|
|-11-11-------11-11-------10-10-------10-10-------|
|-------10-10-------10-10-------10-10-------10-10-|x4 (right back to Main1)
|-------------------------------------------------|
|-------------------------------------------------|
|-------------------------------------------------|
(you can play chords during this... but this is in the back and it sounds much better.
That is, if you want to go above playing just power chords. Else you can just play chords
by ear because i dont feel like tabbing them now... gotta work.)

I left out everything except the solo and im sorry... ill post it later. And again, all
above is 100% right. Email Again is guitarfetish15@yahoo.com.

============================================================================

11. I Changed My Name
By mikkyd

Intro & Verse:

                                                    let this note ring
E|--------------------------------------------------------------||
B|-----3-------3----------------------------------3/5-----------||
G|---2---2---2---2----------------------------------------------||
D|-0----------------(Repeat 3x)-------2p0------4----------------||
A|---------1-----------------------4-------5--------------------||
E|--------------------------------------------------------------||

Play this before starting the chorus

E|-------||
B|-------||
G|-------||
D|--9----|| 8x
A|--9----||
E|--7----||


Chorus:

E|---------------------||          E|-----------------||
B|---------------------||          B|-----------------||
G|---------------------||          G|-----------------|| 
D|--5----7----9--------|| 3x Then  D|---5----7--------|| 8x each
A|--5----7----9--------||          A|---5----7--------||
E|--3----5----7--------||          E|---3----5--------||
                                        pm.....

The second chorus is similar, just extended the number of times you play the second bar
(the last two chords). Then move onto the bridge.


Bridge:

E|-----------|| 
B|-----------||
G|-----------||
D|--9--10----|| play 3x
A|--9--10----||
E|--7--8-----|| 

E|----------------||
B|----------------||
G|--9---7---------||
D|--9---7---9-----||
A|--7---5---9-----||
E|----------7-----||

E|-------||
B|-------||
G|-------||
D|--9----|| This part is once again just before the chorus (8x)
A|--9----||
E|--7----||

During the final part of the song, he plays faded riffs:

E|------0---------||
B|--3------3---3--||
G|----2------2----||
D|----------------||
A|----------------||
E|----------------||

E|-----------------||
B|-5p3h5p3h5p3h5p3-||
G|-----------------||
D|-----------------||
A|-----------------||
E|-----------------||

E|------0---------||
B|--3------3------||
G|----3------3----||
D|----------------||
A|----------------||
E|----------------||

============================================================================


*YES!!!! I'M FINALLY DONE!*  

well have fun with it anyways  '_'
Related for Start Static tab