Song name
# A B C D E F G H I J K L M N O P Q R S T U V W X Y Z

Sugarfree - Feels Like chords

Highlighted       Show chord diagrams
Artist     : Sugarfree
Album      : Mornings and Airports
Ear Tabber : Nathaniel T, Mercado
Email      : stryder_kaskasero@yahoo.com (Friendster)
             demonyo_de_kaskasero@yahoo.com (Friendster)
             nathanielara@gmail.com (Facebook)


Tuning : Standard

Capo On 3rd Fret

         "Wala lang naisipan ko lang siprahin, maganda kasi yung song, 
       pero malayo yan sa tunay kong nararamdaman(Bitter hehehe) 
       anyway... hindi 100% sure, pero katunog naman, try nyong sabayan 
       yung song with this variation, tapos i rate nyo nalang, thanks..."

Intro
         C                            Am7
E  ------0-0---0-0-0---0-0---0-0-0----0-0---0-0-0---0-0---0-0-0----------|
B  ------1-1---0-0-0---1-1---0-0-0----1-1---0-0-0---1-1---0-0-0----------|
G  ------0-0---0-0-0---0-0---0-0-0----0-0---0-0-0---0-0---0-0-0----------|
D  ------2-2---2-2-2---2-2---2-2-2----2-2---2-2-2---2-2---2-2-2----------|
A  ------3-3---3-3-3---3-3---3-3-3----0-0---0-0-0---0-0---0-0-0----------|
E  ----------------------------------------------------------------------|

         F                            G
E  ------0-0---0-0-0---0-0---0-0-0----0-0---0-0-0---0-0---0-0-0----------|
B  ------1-1---0-0-0---1-1---0-0-0----1-1---0-0-0---1-1---0-0-0----------|
G  ------2-2---2-2-2---2-2---2-2-2----0-0---0-0-0---0-0---0-0-0----------|
D  ------3-3---3-3-3---3-3---3-3-3----0-0---0-0-0---0-0---0-0-0----------|
A  -----------------------------------2-2---2-2-2---2-2---2-2-2----------|
E  -----------------------------------3-3---3-3-3---3-3---3-3-3----------|


    (Same Chords as Above)
Stanza : C - Am7 - F - G 

Chorus : C - F - Em - F - G
         C - Fm - Em - F - G

Bridge : Am7 - Em - Dm - G (2x)


Medyo Kulang Pa.. Pero Yan Na Mismo Yung mga Chord...Sana Magustuhan Nyo 
Ito..Thanks For Viewing...
Tap to rate this tab
# A B C D E F G H I J K L M N O P Q R S T U V W X Y Z