Song name
# A B C D E F G H I J K L M N O P Q R S T U V W X Y Z

Sugarfree - Kwentuhan tab

dadagdagan ko nlng pag me tym ako!!!!!!! me ka-chat ako eh!! kyo na bhala sa strumming!!!
intro:

x|-------------------------------|
x|-------------------------------|
x|-22-11-22-11-22-11-22-11-------|
x|-22-22-22-22-22-22-22-22-------|
x|-------------------------------|
x|-------------------------------|

x|-------------------------------|
x|-------------------------------|
x|-22-11-22-11-22-11-22-12-------|
x|-22-22-22-22-22-22-22-22-------|
x|-------------------------------|
x|-2-----------------------------|

x|-----------------------------------|
x|-----------------------------------|
x|-22-11-22-11-22-11-2212----2222221-|
x|-00-00-00-00-00-00-0000----2222222-|
x|-22-22-22-22-22-22-2222----2222222-|
x|-----------------------------------|

chorus:

x|----0-----0--------------------|
x|-3--5--3--5--------------------|
x|-2--6--2--5--4--2--1-----------|
x|-0--6--0--6--4--2--2-----------|
x|----4-----4--2-----2-----------|
x|-------------------------------|
Tap to rate this tab
 
# A B C D E F G H I J K L M N O P Q R S T U V W X Y Z