Song name
# A B C D E F G H I J K L M N O P Q R S T U V W X Y Z

Sugarfree - Kung Ayaw Mo Na Sa Akin tab

Kung Ayaw Mo na sa Akin
by: Sugarfree
tabbed by: Date Masamune
email: d_dreaded_dee@yahoo.com

Tuning: Half-step down
1st tab ko to so kung me mali man pakicomment nlng.. me mga awkward parts pa so pag 
out ko na update ko nlng.. thanks!

LEGENDS
/ -slide up
~ -let notes ring

INTRO
eb|---------------------------------15-15-|
Bb|---------------888-101010-111111-15-15-|
Gb|-555555-666666-777--9-9-9-101010-12-12-|
Db|-333333-444444-555--7-7-7--9-9-9-------|
Ab|-333333-444444-------------------------|
Eb|---------------------------------------|

VERSE
eb|-3--3--1--1--3-|
Bb|-3--3--3--1--3-|
Gb|-------2--2--4-|
Db|-2--2-----3--5-|
Ab|-3--3--x--3--5-|
Eb|-x--x--x--1--3-|x2

CHORUS
eb|-----------------------|
Bb|-----------------------|
Gb|-----------------------|
Db|-555555-55-3/5555-3/55-|
Ab|-555555-33-1/3333-1/33-|
Eb|-333333----------------|x2

eb|------------------------------------3-3-|
Bb|------------------------------------3-3-|
Gb|----------------------------------------|
Db|-222222-777777-333333-444444-555555-----|
Ab|-222222-777777-333333-444444-555555-----|
Eb|-000000-555555-111111-222222-333333-----|

BRIDGE
eb|-3--3--1--3-|
Bb|-3--3--3--3-|
Gb|-------2--4-|
Db|-2--2-----5-|
Ab|-3--3--x--5-|
Eb|-x--x--x--3-|

OUTRO
eb|--------------------3~-|
Bb|--888-101010-111111-3~-|
Gb|--777--9-9-9-101010----|
Db|--555--7-7-7--9-9-9-2~-|
Ab|--------------------3~-|
Eb|--------------------x--|
Tap to rate this tab
# A B C D E F G H I J K L M N O P Q R S T U V W X Y Z