Song name
# A B C D E F G H I J K L M N O P Q R S T U V W X Y Z

Sugarfree - Huling Gabi tab

Highlighted       Show chord diagrams
band:sugarfree
song:huling gabi
album:tala-arawan
submitted by: Brian "amargozin" Galagata


intro:hindi ko pa makapa yung lead ng intro eh, next time nalang,hehehe
Cm-G


verse:
    CM7/D      Em/D
e-----0----------0----------|
B-----3----------3----------|
G-----0----------0----------|
D-----2----------2----------|
A-----3----------2----------|
E-----0----------0----------|


chorus:
F    Am           D        B
ito na ang ating huling gabi
Em                 D       CM7/D       B/D
hagkan natin ang bawat sandaling nalalabi
          Am                C
nang gabing kailan may hindi malilimutan
Am                        B
habang mata'y nakapikit yakap mo akong mahigpit
C                          C#                           D
hanggang lumuhang kay pait hanggang sa kahulihulihang saglit....


bridge:power chords dapat sa part na ito okie,,
Em-D-C-C/B-A-C


chord tabs:
    G  Cm   Em  D   B 
B/D
e---3---0---0---2---x---0---0---|
B---3---5---0---3---0---3---3---|
G---0---6---0---2---4---0---0---|
D---0---6---2---0---4---2---0---|
A---2---4---2---x---2---3---2---|
E---3---x---0---x---0---x---x---|
Tap to rate this tab
 
# A B C D E F G H I J K L M N O P Q R S T U V W X Y Z