Song name
# A B C D E F G H I J K L M N O P Q R S T U V W X Y Z

Sugarfree - Nangangawit tab

Help us improve GuitareTab! Take a short survey!
Title:Nangangawit	
Artist:Sugarfree
Album: Tala-Arawan
Tabbed by:Charles Quilang  (11am-1pm) (April 20, 08)
School:Pateros Catholic School 
For any comments and Suggestion:

Text Me: 09217154686
YM koh:charles_quilang@yahoo.com

This is Nangangawit from  their album "Tala-Arawan"

Sure ako d2 100% Correct to... mga 5/5 rate ko...
rate please....

Tune Your Guitar at : www.howtotuneaguitar.org this is d best!
Tuning: Standard



Di mo ba napapansin     sa mga nakaw kong tingin?
e-------------------------------------------------|
b-------------------------------------------------|
g------------------------3333333---66666666-------|
D--66666666666666666-----3333333---66666666-------|
A--66666666666666666-----1111111---44444444-------|
E--44444444433333333------------------------------|



Ang hindi masabi ng .....labi ....ay kinukubli sa ngiti
e-------------------------------------------------|
b-------------------------------------------------|
g------------------------3333333---66666666666----|
D--66666666666666666-----3333333---66666666666----|
A--66666666666666666-----1111111---44444444444----|
E--44444444433333333------------------------------|

Hanggang kailan ko dadalhin aking lihim na pagtingin
e-------------------------------------------------|
b-------------------------------------------------|
g------------------------4444444---77777777-------|
D--77777777777777777-----4444444---77777777-------|
A--77777777777777777-----2222222---55555555-------|
E--55555555544444444------------------------------|



Kung hindi mo pa alam, .......ewan ko na lang
e-------------------------------------------------|
b-------------------------------------------------|
g------------------------4444444---77777777777----|
D--77777777777777777-----4444444---77777777777----|
A--77777777777777777-----2222222---55555555555----|
E--55555555544444444------------------------------|



   Dinggin ang di kayang.... sabihin
e-------------------------------------------------|
b-------------------------------------------------|
g----6666666666666--------------------------------|
D----6666666666666-------44444444444--------------|
A----4444444444444-------44444444444--------------|
E------------------------22222222222--------------|


    Ng puso kong malapit nang mangawit
e-------------------------------------------------|
b-------------------------------------------------|
g----4444444444444---------777777777--------------|
D----4444444444444---------777777777--------------|
A----2222222222222---------555555555--------------|
E-------------------------------------------------|



VerseII

      Di kaba ..nagtataka sa mga kinikilos kong
e-------------------------------------------------|
b-------------------------------------------------|
g------------------------3333333---66666666-------|
D--66666666666666666-----3333333---66666666-------|
A--66666666666666666-----1111111---44444444-------|
E--44444444433333333------------------------------|

       Halos di magkandarapa at nauutal-utal pa.
e-------------------------------------------------|
b-------------------------------------------------|
g------------------------3333333---66666666-------|
D--66666666666666666-----3333333---66666666-------|
A--66666666666666666-----1111111---44444444-------|
E--44444444433333333------------------------------|




         Patawarin mo ako kung ang kinikilos ko
e-------------------------------------------------|
b-------------------------------------------------|
g------------------------4444444---77777777-------|
D--77777777777777777-----4444444---77777777-------|
A--77777777777777777-----2222222---55555555-------|
E--55555555544444444------------------------------|


         Ay kabaliktaran ng tunay na nadarama ko 
e-------------------------------------------------|
b-------------------------------------------------|
g------------------------4444444---77777777-------|
D--77777777777777777-----4444444---77777777-------|
A--77777777777777777-----2222222---55555555-------|
E--55555555544444444------------------------------|



   Dinggin ang di kayang.... sabihin
e-------------------------------------------------|
b-------------------------------------------------|
g----6666666666666--------------------------------|
D----6666666666666-------44444444444--------------|
A----4444444444444-------44444444444--------------|
E------------------------22222222222--------------|


    Ng puso kong malapit nang mangawit
e-------------------------------------------------|
b-------------------------------------------------|
g----4444444444444---------7777777777777777-------|
D----4444444444444---------7777777777777777-------|
A----2222222222222---------5555555555555555-------|
E-------------------------------------------------|



ROLLING NG DRUMS...... THEN

(1:39)
e-------------------------------------------------|
b-------------------------------------------------|
g----------66--77-------------66--77777-----------|
D--77--66--66--77-----77--66--66--77777-----------|
A--77--66--44--55-----77--66--44--55555-----------|
E--55--44-------------55--44----------------------|


    ahhhh................ ha... ha....

e-----------------------------------------------------|
b-----------------------------------------------------|
g-----------------------------6666666666--7777777777--|
D--77777777777---666666666----6666666666--7777777777--|
A--77777777777---666666666----4444444444--5555555555--|
E--55555555555---444444444----------------------------|


   ahhhh................ ha... ha....

e-----------------------------------------------------|
b-----------------------------------------------------|
g-----------------------------6666666666--7777777777--|
D--77777777777---666666666----6666666666--7777777777--|
A--77777777777---666666666----4444444444--5555555555--|
E--55555555555---444444444----------------------------|




     Ano pang di ko kailangan gawin upang iyong mapansin?
e-------------------------------------------------|
b-------------------------------------------------|
g-------------------------------------------------|
D--6----------------------------------------------|
A--6----------------------------------------------|
E--4----------------------------------------------|

      Kelan ba matatapos ang awit Ng pusong nangangawit?
e-------------------------------------------------|
b-------------------------------------------------|
g------------------------3333333---6--------------|
D--66666666666666666-----3333333---6--------------|
A--66666666666666666-----1111111---4--------------|
E--44444444433333333------------------------------|

 
      Patawarin mo ako kung ang kinikilos ko
e-------------------------------------------------|
b-------------------------------------------------|
g------------------------4444444---77777777-------|
D--77777777777777777-----4444444---77777777-------|
A--77777777777777777-----2222222---55555555-------|
E--55555555544444444------------------------------|
 
     Ay kabaliktaran ng tunay na nadarama ko
e-------------------------------------------------|
b-------------------------------------------------|
g------------------------4444444---77777777-------|
D--77777777777777777-----4444444---77777777-------|
A--77777777777777777-----2222222---55555555-------|
E--55555555544444444------------------------------|


 OH!!!!  Dinggin ang di kayang.... sabihin
e-------------------------------------------------|
b-------------------------------------------------|
g----6666666666666--------------------------------|
D----6666666666666-------44444444444--------------|
A----4444444444444-------44444444444--------------|
E------------------------22222222222--------------|


    Ng puso kong malapit nang mangawit
e-------------------------------------------------|
b-------------------------------------------------|
g----4444444444444---------777777777--------------|
D----4444444444444---------777777777--------------|
A----2222222222222---------555555555--------------|
E-------------------------------------------------|

  OH!!!!  Dinggin ang di kayang.... sabihin
e-------------------------------------------------|
b-------------------------------------------------|
g----6666666666666--------------------------------|
D----6666666666666-------44444444444--------------|
A----4444444444444-------44444444444--------------|
E------------------------22222222222--------------|

    Ng puso kong malapit nang MA-NGA-WIT!!!!
e-------------------------------------------------|
b-------------------------------------------------|
g----4444444444444---------7777777777777777-------|
D----4444444444444---------7777777777777777-------|
A----2222222222222---------5555555555555555-------|
E-------------------------------------------------|

          ahhhh................ ha... ha....
e-----------------------------------------------------|
b-----------------------------------------------------|
g-----------------------------6666666666--7777777777--|
D--77777777777---666666666----6666666666--7777777777--|
A--77777777777---666666666----4444444444--5555555555--|
E--55555555555---444444444----------------------------|

          ahhhh................ ha... ha....
e-----------------------------------------------------|
b-----------------------------------------------------|
g-----------------------------6666666666--7777777777--|
D--77777777777---666666666----6666666666--7777777777--|
A--77777777777---666666666----4444444444--5555555555--|
E--55555555555---444444444----------------------------|

          ahhhh................ ha... ha....
e-----------------------------------------------------|
b-----------------------------------------------------|
g-----------------------------6666666666--7777777777--|
D--77777777777---666666666----6666666666--7777777777--|
A--77777777777---666666666----4444444444--5555555555--|
E--55555555555---444444444----------------------------|

          ahhhh................ ha... ha....
e-------------------------------------------|
b-------------------------------------------|
g-----------------------------6666666666----|
D--77777777777---666666666----6666666666----|
A--77777777777---666666666----4444444444----|
E--55555555555---444444444------------------|

ENding.....

e-----------------------------------------------|
b-----------------------------------------------|
g--7777--10101010---12121212--14141414----------|
D--7777--10101010---12121212--14141414----777---|
A--5555---8888------10101010--12121212----777---|
E-----------------------------------------555---|

please rate my tab!


               END!
             


 
Related for Nangangawit tab