Song name
# A B C D E F G H I J K L M N O P Q R S T U V W X Y Z

Sugarland - Sex On Fire tab

This is a great cover song originally done by Kings of Leon, however, i had to figure it 
by ear and the video as i could not find the tabs anywhere.
If anyone has a better version please E-mail me at wtb300@myspace.com.
Listen to the song for timing and pattern.

Drop D tuning, D, A, D, G, B, e.
Capo on the third fret.

verses 1&2

e-------------------------------------------------------------|
B-------------------------------------------------------------|
G-------------------------------------------------------------|
D-----0-----0-----0-----0-----0-----0-----0-----0-----0-----0-|
A-------------------------------------------------0h3---3-3---|
D-0-0---0-0---0-0---0-0---0-0---0-0---0-0---0-0---------------|

Chorus

e--2---2------|
B--3---2---8--|
G--2---4---7--|
D--0---4---5--|
A--0---2---5--|
D--0-------5--|

V3

e------------------------------------------------|
B-----3-3-----3-3-----3-3-----3-3----------------|
G-4p2-2-2-4p2-2-2-4p2-2-2-4p2-2-2----4---4---4---|\\\\
D-0-------0-------0-------0---------4-4---4---4--|    x2
A----------------------------------2---2---2---2-|////
D------------------------------------------------|

Well thats what i could make of it please E-mail me with changes at wtb300@myspace.com.
Tap to rate this tab
# A B C D E F G H I J K L M N O P Q R S T U V W X Y Z