Song name
# A B C D E F G H I J K L M N O P Q R S T U V W X Y Z

Sugarland - Down In Mississippi \ tab

                      Down in Mississippi (Up to No Good)                       


                                                                       Sugarland
Track 1



     H        Q.     E      W                   H        E   E  E  E   
E||----------------------|-------------------|------------------------|
B||------------------0b--|--L----------------|--L---------------------|
G||------------------0---|--L----------------|--L---------------------|
D||----------------------|-------------------|-----------5b--3--------|
A||----------------------|-------------------|------------------5--5--|
D||----------------------|-------------------|------------------------|


  H        E  E  E  E     E  E  E  E  E  E  Q     
-----------------------|-------------------------|
-----------------------|-------------------------|
-----------------------|-------------------------|
-----------------------|-------------------------|
--L-----------3--0--3--|-----0-------------------|
-----------------------|--5-----5--3--5--3--0----|


  E   E   E   E   Q      E   E      W                 
---------------------------------|-------------------|
---------13------13~-------------|-------------------|
-----14------14---------14--14~--|--L----------------|
---------------------------------|-------------------|
---------------------------------|-------------------|
---------------------------------|-------------------|


  E   E   E   E   Q      E   E      W                    W                  
---------------------------------|-------------------|---------------------|
---------13------13~-------------|-------------------|--12b----------------|
-----14------14---------14--14~--|--L----------------|---------------------|
---------------------------------|-------------------|---------------------|
---------------------------------|-------------------|---------------------|
---------------------------------|-------------------|---------------------|


  W                    W                   W                 
--------------------|-------------------|-------------------|
--L~----------------|--L----------------|--L----------------|
--------------------|-------------------|-------------------|
--------------------|-------------------|-------------------|
--------------------|-------------------|-------------------|
--------------------|-------------------|-------------------|


                                          E   Q     E   H          
-------------------|-------------------|--------------------------|
-------------------|-------------------|-----13~-------13~--------|
-------------------|-------------------|-----14~-------14~--------|
-------------------|-------------------|--------------------------|
-------------------|-------------------|--------------------------|
-------------------|-------------------|--------------------------|


  E   Q     E   H                                                      
--------------------------|-----------|-----------|-------------------|
-----13~-------13~--------|-----------|-----------|-------------------|
-----14~-------14~--------|-----------|-----------|-------------------|
--------------------------|-----------|-----------|-------------------|
--------------------------|-----------|-----------|-------------------|
--------------------------|-----------|-----------|-------------------|


-------------------|-------------------|-------------------|
-------------------|-------------------|-------------------|
-------------------|-------------------|-------------------|
-------------------|-------------------|-------------------|
-------------------|-------------------|-------------------|
-------------------|-------------------|-------------------|


  E   Q     E   H            E   Q     E   H            W                 
--------------------------|--------------------------|-------------------|
-----13~-------13~--------|-----13~-------13~--------|--2----------------|
-----14~-------14~--------|-----14~-------14~--------|--2----------------|
--------------------------|--------------------------|--2----------------|
--------------------------|--------------------------|--0----------------|
--------------------------|--------------------------|-------------------|


  W                   W                   Q     H          Q     
-------------------|--3----------------|------------------------|
--L----------------|--3----------------|-------13b~--------L----|
--L----------------|--0----------------|------------------------|
--L----------------|--0----------------|------------------------|
--L----------------|-------------------|------------------------|
-------------------|-------------------|------------------------|


  E   E  E   E  Q      E  E     E   E   E   E   Q      E   E    
-----------------------------|---------------------------------|
-----------------------------|---------13------13~-------------|
-----------------------------|-----14------14---------14--14~--|
--5b--3--5b--3---------------|---------------------------------|
----------------5br----------|---------------------------------|
-----------------------5--3--|---------------------------------|


  W                                                                             
-------------------|-------------------|-------------------|-------------------|
-------------------|-------------------|-------------------|-------------------|
--L----------------|-------------------|-------------------|-------------------|
-------------------|-------------------|-------------------|-------------------|
-------------------|-------------------|-------------------|-------------------|
-------------------|-------------------|-------------------|-------------------|


                       W                     E  E  E  E  E  E  Q      
-------------------|----------------------|--------------------------|
-------------------|--13b~----------------|--------------------------|
-------------------|----------------------|--7--5-----5--------------|
-------------------|----------------------|--------7-----7--5--3~----|
-------------------|----------------------|--------------------------|
-------------------|----------------------|--------------------------|


                                       W                                  
  E  E  E  E  E  E  E  E     E  E  E   Q    E  E  E                       
--------------------------|--------------------------|-------------------|
--------------------------|--------------------------|-------------------|
-----7--5-----5-----------|--------------------------|-------------------|
-----------7-----7--5--3--|--------------------------|-------------------|
--------------------------|--5--3--0S--5----3--0-----|-------------------|
--------------------------|-----------------------3--|-------------------|


-------------------|-------------------|-------------------|-------------------|
-------------------|-------------------|-------------------|-------------------|
-------------------|-------------------|-------------------|-------------------|
-------------------|-------------------|-------------------|-------------------|
-------------------|-------------------|-------------------|-------------------|
-------------------|-------------------|-------------------|-------------------|


                      E  E     E    E  E  Q     E     Q     E  Q     Q.       
-------------------|-------------------------------|-------------------------|
-------------------|-------------------------------|-------------------------|
-------------------|-----7br--(7)p--5-----5~-------|--5~-------5~------------|
-------------------|-------------------7--------7--|--------7--------7\------|
-------------------|-------------------------------|-------------------------|
-------------------|-------------------------------|-------------------------|


  W                   W                   W                 
-------------------|-------------------|--3----------------|
--2----------------|--L----------------|--3----------------|
--2----------------|--L----------------|--0----------------|
--2----------------|--L----------------|--0----------------|
--0----------------|--L----------------|-------------------|
-------------------|-------------------|-------------------|


  Q     Q      Q       Q        E   Q     H         E                       
----------------------------|--------------------------|-------------------|
-------17s----15s~----13----|------13------------------|-------------------|
----------------------------|--14--------14~-----------|-------------------|
----------------------------|--------------------------|-------------------|
----------------------------|--------------------------|-------------------|
----------------------------|--------------------------|-------------------|


-------------------|-------------------|-------------------|-------------------|
-------------------|-------------------|-------------------|-------------------|
-------------------|-------------------|-------------------|-------------------|
-------------------|-------------------|-------------------|-------------------|
-------------------|-------------------|-------------------|-------------------|
-------------------|-------------------|-------------------|-------------------|


                      W                   W                 
-------------------|-------------------|-------------------|
-------------------|--2----------------|--L----------------|
-------------------|--2----------------|--L----------------|
-------------------|--2----------------|--L----------------|
-------------------|--0----------------|--L----------------|
-------------------|-------------------|-------------------|


  H        E  E  E  E     Q      Q     Q       Q     
-----------------------|----------------------------|
--L--------------------|----------------------------|
--L-----------------7--|--9br----7----12br----11----|
--L-----------7--9-----|----------------------------|
--L--------------------|----------------------------|
-----------------------|----------------------------|


                                              PM                 
   Q       E   H          E      E    E   E   E   E    E   Q     
-----------------------------|--12b--12--10---------------------|
--12br----10--13b~--------L--|---------------12-----------------|
-----------------------------|-------------------12b--12--11----|
-----------------------------|----------------------------------|
-----------------------------|----------------------------------|
-----------------------------|----------------------------------|


  Q      E  Q      Q     E      Q     E  E  Q     E  E   
----------------------------|---------------------------|
------------------10-----L--|---------8--8--------------|
--9br----7--9b----(9)-------|--10b----------9b----7--7--|
----------------------------|---------------------------|
----------------------------|---------------------------|
----------------------------|---------------------------|


   Q     Q     E   Q     E      Q      E    E   E   Q      E   
----------------------------|---------------------------------|
--10b----8---------8~----L--|--17b----15S--13------13~--------|
--------------10b-----------|------------------14---------14--|
----------------------------|---------------------------------|
----------------------------|---------------------------------|
----------------------------|---------------------------------|


   Q      E   Q      E   Q        E   Q      H          E     
-------------------------------|--x--19b----17~--------15br--|
--13~--------13~--------13~----|-----------------------------|
---------14---------14---------|-----------------------------|
-------------------------------|-----------------------------|
-------------------------------|-----------------------------|
-------------------------------|-----------------------------|


  S  S   E   E   E   E   E   Q        E   E   E   E   E   E   E   E   
--L--Lp-13------------------------|------15--19------15--19------15--|
------------15--12----------------|--15----------15----------15------|
--------------------14--12--------|----------------------------------|
----------------------------15----|----------------------------------|
----------------------------------|----------------------------------|
----------------------------------|----------------------------------|


    E   E   E   E      Q      E     E     Q      E     E     
-------17--21------|--21b----21pb--21pb--21b----21pb--21pb--|
--/17----------17--|----------------------------------------|
-------------------|----------------------------------------|
-------------------|----------------------------------------|
-------------------|----------------------------------------|
-------------------|----------------------------------------|


   Q      Q      E    E   Q          W                                      
--21b----21b----21b--------------|---------------------|-------------------|
---------------------15--17br----|--15~----------------|-------------------|
---------------------------------|---------------------|-------------------|
---------------------------------|---------------------|-------------------|
---------------------------------|---------------------|-------------------|
---------------------------------|---------------------|-------------------|


  Q     H          Q        E    E    E   E   E   E   Q                         
------------------------|----------------------------------|-------------------|
-------13b~--------L----|--17b--15s--13--------------------|-------------------|
------------------------|----------------14--12------------|-------------------|
------------------------|------------------------15--12----|-------------------|
------------------------|----------------------------------|-------------------|
------------------------|----------------------------------|-------------------|


-------------------|-------------------|-------------------|-------------------|
-------------------|-------------------|-------------------|-------------------|
-------------------|-------------------|-------------------|-------------------|
-------------------|-------------------|-------------------|-------------------|
-------------------|-------------------|-------------------|-------------------|
-------------------|-------------------|-------------------|-------------------|


-------------------|-------------------|-------------------|-------------------|
-------------------|-------------------|-------------------|-------------------|
-------------------|-------------------|-------------------|-------------------|
-------------------|-------------------|-------------------|-------------------|
-------------------|-------------------|-------------------|-------------------|
-------------------|-------------------|-------------------|-------------------|


-------------------|-------------------|-------------------|-------------------|
-------------------|-------------------|-------------------|-------------------|
-------------------|-------------------|-------------------|-------------------|
-------------------|-------------------|-------------------|-------------------|
-------------------|-------------------|-------------------|-------------------|
-------------------|-------------------|-------------------|-------------------|


  W                   W                   W                                     
-------------------|-------------------|--3----------------|-------------------|
--2----------------|--L----------------|--3----------------|-------------------|
--2----------------|--L----------------|--0----------------|-------------------|
--2----------------|--L----------------|--0----------------|-------------------|
--0----------------|--L----------------|-------------------|-------------------|
-------------------|-------------------|-------------------|-------------------|


                      W                   W                   W                 
-------------------|-------------------|-------------------|--3----------------|
-------------------|--2----------------|--L----------------|--3----------------|
-------------------|--2----------------|--L----------------|--0----------------|
-------------------|--2----------------|--L----------------|--0----------------|
-------------------|--0----------------|--L----------------|-------------------|
-------------------|-------------------|-------------------|-------------------|


  H        H           W                   W                 
--2--------2--------|--2----------------|--L----------------|
--3--------3--------|--3----------------|--L----------------|
--2--------2--------|--2----------------|--L----------------|
--0--------0--------|--0----------------|--L----------------|
--------------------|-------------------|-------------------|
--------------------|-------------------|-------------------|


  W                   W                   W                  
--L----------------|--L----------------|--L----------------||
--L----------------|--L----------------|--L----------------||
--L----------------|--L----------------|--L----------------||
--L----------------|--L----------------|--L----------------||
-------------------|-------------------|-------------------||
-------------------|-------------------|-------------------||




Duration Legend
---------------
W - whole
H - half
Q - quarter
E - 8th
S - 16th
T - 32nd
X - 64th
. - note dotted
|-n-|  - n-tuplets


Tablature Legend
----------------
L - tied note
x - dead note
g - grace note
(n) - ghost note
> - accentuded note
NH - natural harmonic
AH - artificial harmonic
TH - tapped harmonic
SH - semi harmonic
PH - pitch harmonic
h - hammer on
p - pull off
b - bend
br - bendRelease
pb - preBend
pbr - preBendRelease
brb - bendReleaseBend
\n/ - tremolo bar dip
\n - tremolo bar dive
-/n - tremolo bar Release up
/n\ - tremolo bar inverted dip
/n - tremolo bar return
-\n - tremolo bar Release down
S - shift slide
s - legato slide
/ -  slide into from below or out of upwards
\ -  slide into from above or out of downwards
~ - vibrato
W - wide vibrato
tr - trill
TP - tremolo picking
T - tapping
S - slap
P - pop
< - fade in
^ - brush up
v - brush down
Tap to rate this tab
 
# A B C D E F G H I J K L M N O P Q R S T U V W X Y Z