Song name
# A B C D E F G H I J K L M N O P Q R S T U V W X Y Z

Sugarplum Fairy - Bring Danger tab

Highlighted       Show chord diagrams
Sugarplum Fairy - "Bring Danger"

This is my first tab, so I hope you'll like it. If you guys see faults or things you'd 
better please write me:-) Thx...

Chords Used:
    B#m    D     em        F#m            F#m2
E:--2------5------7------2------9-------2------9---|
B:--3------7------8------2------10------2------11--|
G:--4------7------9------2--OR--11------3--OR--9---|
D:--4------7------9------4------11------2------11--|
A:--2------5------7------4------9-------4------9---|
E:--2------5------7------2------9-------2------9---|

Intro :
D:---------------------------------------------------------|
A:-2--2-2--2-2-2-4--4-4--4-4-4-5--5-5--5-5-5-4--4-4--5-4---|
E:-------------------------------------------------------5-|

D:------------------------------------------------2--------|
A:-2--2-2--2-2-2-4--4-4--4-4-4-5--5-5--5-5-5-4--4----5-4---|
E:-------------------------------------------------------5-|

You can play the Intro just through the whole Verses or you can even use these
chords, like I do:-)

Vers 1:
   B#m                D
Something brought me here to stay
           em            F#m
But for a reason hard to see
   B#m                 D
Eighteen years they planned my way
               em              F#m
And just like that, hey you're free
  B#m              D
Am I allowed to change the rules?
          em           F#m
Am I to question everything?
  B#m          D
A useless generations fool
       em                 F#m
In the eyes of those who bring


Bridge:
em                           F#m
Me to this, I got nothing to loose


Refrain:
      B#m
Bring danger to me
    D
and I will catch the bullets
 em
Danger to me
 F#m
something new to me
      B#m
Bring danger to me
    D                        em
And we will be where we were promised to be
      F#m
Bring danger to me


Bridge: 2x Guitar Solo

E:-----------5--2-------------5--7--2---|
B:-------3-5--------------3-5-----------|
G:-4-4-6------------4-4-6---------------|


Vers 2:
     B#m             D
They tell you you're nothing
         em                F#m
and that nothing comes for free
      B#m                D              em            F#m
Don't think that you're special or that you will ever be
  B#m               D
I still and always will believe
         em                F#m
that the future's ment for us
           B#m        D
If we only keep to be naive
      em         F#m
then we'll get across


Bridge:
em                          F#m
Until then I got nothing to loose


2x Refrain:
B#m
Bring danger to me
    D
and I will catch the bullets
 em
Danger to me
 F#m
something new to me
      B#m
Bring danger to me
    D                        em
And we will be where we were promised to be
      F#m            em
Bring danger to me


Vers 3:
                 F#m      em
I made a promise to you
                   F#m         em
that we would mean something
        F#m
Someday maby
F#m2
Who knows?
F#m2
Who knows?
F#m2
You can save me


2x Refrain:
B#m
Bring danger to me
    D
and I will catch the bullets
 em
Danger to me
 F#m
something new to me
      B#m
Bring danger to me
    D                        em
And we will be where we were promised to be
      F#m
Bring danger to me


Final & Outro(Repeat many times):
B#m
Dawn
D             em
on and on and on
F#m
on and on an on

End on B#m...

By Schohele1503(joelbelmann@yahoo.de)
Tap to rate this tab
 
# A B C D E F G H I J K L M N O P Q R S T U V W X Y Z