Song name
# A B C D E F G H I J K L M N O P Q R S T U V W X Y Z

Sugarplum Fairy - Caroline chords

Highlighted       Show chord diagrams
Guitar through the verse:

e|------------------------7-9-10------------------------|
B|-7-8-10-----7-8-7--------------7-------7--------------|
G|--------7-9-------9-7------------9-7-9---9------------|
D|----------------------9-------------------------------|
A|------------------------------------------------------|
E|------------------------------------------------------|

Chords:


         D
When you cry, I cry
    Em
Sad eyed Caroline
          Bm                  A            
With your tears came tears of mine.

      D
I was young, confused,
Em
Hollow and bemused
      Bm                     A
So my heart got bruised with time.

    D
My apologies,
    Em
Sad eyed Caroline
         Bm                A
When I define what's on my mind.

        D
What is left? What's there?
    Em
Who cares if there's still air
   Bm                  A
To bring my thoughts into the clear
A
Before they disappear.

                 D
I didn't mean to say
                 G
All the things I said,
               Em
Didn't mean to do
                        A
The things I've done to you,
           F#m
On my bare knees
                    Bm
I tell you that I'm sorry,
           Em
Is this goodbye?
            A
Sad eyed Caroline
                  D        G  D  G
Hope you're doing fine.

           D
Feels like yesterday
   Em
We sat down by the bay
        Bm             A
Waiting for the sun to set our way.

    D
And one by one
    Em
The hours counted down
      Bm           A
As we walked into oblivion.

        D
Do your eyes still shine
     Em
When day and night entwine
          Bm                A    
Like this icy sky through a hollow night?

        D
Do your lips still dare
   Em
To curse out your despair
       Bm                  A
And to swear when it's not there?
A
Is life to wear and tear?

                 D
I didn't mean to say
                 G
All the things I said
                 Em
I didn't mean to do
                        A
The things I've done to you.
           F#m
On my bare knees
                    Bm
I tell you that I'm sorry.
           Em
This is goodbye,
            A
Sad eyed Caroline.

                 D
I didn't mean to say
                 G
All the things I said
                Em
I didn't mean to do
                        A
The things I've done to you.
           F#m
On my bare knees
                    Hm
I tell you that I'm sorry
        Em
But if I can, 
                           A
Through sorrow and through pain,
            D
I do it all again.

e|------------------------7-9-10-------------------------|
B|-7-8-10-----7-8-7--------------7-------7---------------|
G|--------7-9-------9-7------------9-7-9---9-------------|
D|----------------------9--------------------------------|
A|-------------------------------------------------------|
E|-------------------------------------------------------|

e|------------------------7-9-10-------------------------|
B|-7-8-10-----7-8-7--------------7-------7---7---7---7-10|
G|--------7-9-------9-7------------9-7-9---9---9---9-----|
D|----------------------9--------------------------------|
A|-------------------------------------------------------|
E|-------------------------------------------------------|


               D
If we meant to say
                  G
All the things we said
               Em
If we meant to do
                           A
The things that we've gone through
                 F#m
Then on our bare knees
                 Bm
We welcome a new morning
       Em
Let us rewind,
           A
Repair and replay,
             G   
Let it blow away...
Tap to rate this tab
# A B C D E F G H I J K L M N O P Q R S T U V W X Y Z