Sugarplum Fairy - In Berlin tab

-------------------------------------------------------------------------------
			    In Berlin - Sugarplum Fairy
-------------------------------------------------------------------------------
Tabbed by:The Koombat


Tuning:

CAPO 4

e|-0-0-0-0-0-0-0-0-0-0-0-0-0-0-0-0-0-0-1-0-3-3-3-3-3-3-3-0-0-|
B|-1-1-1-1-1-1-3-1-0-1-1-1-1-1-1-1-1-1-1-1-3-3-3-3-3-3-3-5-3-|
G|-2-2-2-2-2-2-2-2-2-2-0-0-0-0-0-0-0-0-0-0-0-0-0-0-0-0-0-0-0-|
D|-2-2-2-2-2-2-2-2-2-2-2-2-2-2-2-2-2-2-2-2-0-0-0-0-0-0-0-0-0-|
A|-0-0-0-0-0-0-0-0-0-0-3-3-3-3-3-3-3-3-3-3-2-2-2-2-2-2-2-----|
E|-----------------------------------------3-3-3-3-3-3-3-----|

e|-0-0-0-0-0-0-0-0-0-0-0-|
B|-1-1-1-1-1-1-1-1-1-1-1-|
G|-2-2-2-2-2-2-2-2-2-2-2-|
D|-3-3-3-3-3-3-3-3-3-3-3-|
A|-3-3-3-3-3-3-3-3-3-3-3-|
E|-----------------------|
Tap to rate this tab
 
# A B C D E F G H I J K L M N O P Q R S T U V W X Y Z