Song name
# A B C D E F G H I J K L M N O P Q R S T U V W X Y Z

Sugarplum Fairy - In Berlin chords

Highlighted       Show chord diagrams
CAPO 4!

Intro:

  Am                   C                   G             
  

B|-1-1-1-1-1-1-3-1-0-1-1-1-1-1-1-1-1-1-1-1-3-3-3-3-3-3-3-5-3-|
G|-2-2-2-2-2-2-2-2-2-2-0-0-0-0-0-0-0-0-0-0-0-0-0-0-0-0-0-0-0-|
D|-2-2-2-2-2-2-2-2-2-2-2-2-2-2-2-2-2-2-2-2-0-0-0-0-0-0-0-0-0-|
A|-0-0-0-0-0-0-0-0-0-0-3-3-3-3-3-3-3-3-3-3-2-2-2-2-2-2-2-----|
E|-----------------------------------------3-3-3-3-3-3-3-----|

   C

e|-0-0-0-0-0-0-0-0-0-0-0-|
B|-1-1-1-1-1-1-1-1-1-1-1-|
G|-2-2-2-2-2-2-2-2-2-2-2-|
D|-3-3-3-3-3-3-3-3-3-3-3-|
A|-3-3-3-3-3-3-3-3-3-3-3-|
E|-----------------------|

3x

Vers1
	         Am
I'm with you in Berlin
C			                  G
Hide inside a dark hotel
			                        F
Outside is anarchy and hell
		            Am 
Los souls rebel


In Berlin
C			                             G
  I rather die thenstay with you
				                               F
There's nothing left for me to do
		                Am
Here's my adieu

Am C G F

Chorus x2
C				                                  G
 So can you hear me when I walk away?
				                                  Am
You did not hear me when I tried to stay
	        F
I am with you in Berlin


Am C G F x2

	        Am
I'm with you i Berlin
C			                        G
 I walk along a burning street
			                      F
But i can't feel the heat
		                    Am ( Let it ring )
Down fall concrete


In berlin
C			                           G
The Martyr's got a hold of you
			                            F
The orphans dying eyes are blue
		                     Am
Nothing spells true


Am C G F


Chorus x4
C				                               G
 So can you hear me when I walk away?
				                                   Am
You did not hear me when I tried to stay
	         F
I'm with you in Berlin

C		             G          Am
Alone is how I stand in the end
C
In Berlin 
Tap to rate this tab
 
# A B C D E F G H I J K L M N O P Q R S T U V W X Y Z