Song name
# A B C D E F G H I J K L M N O P Q R S T U V W X Y Z

Sugizo - Synchronicity tab

Yo..! This is my first time to tab here..so mistakes are not uncommon..
 
Tuning - EADGBE (Standard)

Legend:
~ - Let ring

[INTRO PART]

e| -------------------------------------------------------------------------|
B| ---4---------------------------------------------------------------------|
G| -----3-1~(long pause)-------6-3~(long pause)-----------------------------|
D| -2-----------------------4-----------------------------------------------|
A| -----------------------6-------------------------------------------------|
E| -------------------------------------------------------------------------|

e| -------------------------------------------------------------------------|
B| ---4---------------------------------------------------------------------|
G| -----3-1~(long pause)-------6-3~-----------------------------------------|
D| -2-----------------------4-----------------------------------------------|
A| -----------------------6-------------------------------------------------|
E| -------------------------------------------------------------------------|


e| -----------------------------------------|
B| --------0--------------------------------|
G| -----------3-----------------------------|
D| --------------4~-------------------------|
A| -----------------------------------------|
E| -----4-----------------------------------|

e| -------------------------------------------------------------------------|
B| ---4---------------------------------------------------------------------|
G| -----3-1~(long pause)-------6-3~(long pause)-----------------------------|
D| -2-----------------------4-----------------------------------------------|
A| -----------------------6-------------------------------------------------|
E| -------------------------------------------------------------------------|

e| -------------------------------------------------------------------------|
B| ---4---------------------------------------------------------------------|
G| -----3-1~(long pause)-------6-3~-----------------------------------------|
D| -2-----------------------4-----------------------------------------------|
A| -----------------------6-------------------------------------------------|
E| -------------------------------------------------------------------------|

e| -----------------------------------------|
B| --------------0~-------------------------|
G| -----------3-----------------------------|
D| --------4--------------------------------|
A| -----------------------------------------|
E| -----4-----------------------------------|

[Violin joins in aka VERSE PART]

e| -------------------------------------------------------------------------|
B| ---4---------4-----------------------------------------------------------|
G| -----3-1~------3-1~--------6-3~-----6-3~---------------------------------|
D| -2---------2-------------4--------4--------------------------------------|
A| -----------------------6--------6----------------------------------------|
E| -------------------------------------------------------------------------|

e| -------------------------------------------------------------------------|
B| ---4---------4-----------------------0-----------------------------------|
G| -----3-1~------3-1~--------6-3~--------3---------------------------------|
D| -2---------2-------------4---------------4~------------------------------|
A| -----------------------6-------------------------------------------------|
E| -----------------------------------4-------------------------------------|

Repeat the verse part until the end of the song. Sorry if there are mistakes..

[End]
Tap to rate this tab
 
# A B C D E F G H I J K L M N O P Q R S T U V W X Y Z