Guitaretab - guitar tabs
Song name
# A B C D E F G H I J K L M N O P Q R S T U V W X Y Z
Home / S / Sugizo / Trauma tab

Sugizo - Trauma tab

-------------------------------------------------------------------------------
			     TRAUMA - SUGIZO
-------------------------------------------------------------------------------

SUGIZO Official Website : http://www.sugizo.com/

Tabbed by: acidjames
Email: acidjames at gmail dot com

Tuning: Standard

Chords :

[ X X 7 5 0 0 ]
[ X X 10 0 8 0 ]
[ X X 3 5 0 0 ]
[ X X 2 5 0 0 ]
[ X X 5 5 0 0 ]

Extremely fast picking for original version, slower picking for acoustic album version

listen to the original song please because picking pattern gets really repetitive and i 
want to count how many times these patterns are played

Add some nice dreamy delay effect and that's basically it!


e|-----------------0-------------------0------------------------0----------|
B|---------0------------------0----------------------0---------------------|
G|-------------5------------------5------------------------5---------------|
D|-----7----------------7---------------------7----------------------------|
A|-------------------------------------------------------------------------|
E|-------------------------------------------------------------------------|


e|-----------------0-------------------0------------------------0----------|
B|---------8------------------8----------------------8---------------------|
G|-------------0------------------0------------------------0---------------|
D|-----/10----------------10---------------------10------------------------|
A|-------------------------------------------------------------------------|
E|-------------------------------------------------------------------------|

[ Tab from: http://www.guitaretab.com/s/sugizo/71826.html ]
e|-----------------0-------------------0------------------------0----------|
B|---------0------------------0----------------------0---------------------|
G|-------------5------------------5------------------------5---------------|
D|-----3----------------3---------------------3----------------------------|
A|-------------------------------------------------------------------------|
E|-------------------------------------------------------------------------|

attention, this arpeggio is only played twice, you can easily hear the D string on the 
recording

e|-----------------0-------------------0----|
B|---------0------------------0-------------|
G|-------------5------------------5---------|
D|-----2----------------2-------------------|
A|------------------------------------------|
E|------------------------------------------|


e|-----------------0-------------------0------------------------0----------|
B|---------0------------------0----------------------0---------------------|
G|-------------5------------------5------------------------5---------------|
D|-----3----------------3---------------------3----------------------------|
A|-------------------------------------------------------------------------|
E|-------------------------------------------------------------------------|


e|-----------------0-------------------0------------------------0----------|
B|---------0------------------0----------------------0---------------------|
G|-------------5------------------5------------------------5---------------|
D|-----5----------------5---------------------5----------------------------|
A|-------------------------------------------------------------------------|
E|-------------------------------------------------------------------------|

PS : If any of you have some other SUGIZO tabs (except synchronity ptb) please send them 
my email adress


| /  slide up
|   slide down
| h  hammer-on
| p  pull-off
| ~  vibrato
| +  harmonic
| x  Mute note
===============================================================================
Related for Trauma tab
×
Trauma