Song name
# A B C D E F G H I J K L M N O P Q R S T U V W X Y Z

Sugizo - Synchronicity tab

-------------------------------------------------------------------------------
			     SYNCHRONICITY - SUGIZO
-------------------------------------------------------------------------------

SUGIZO Official Website : http://www.sugizo.com/

Tabbed by: acidjames
Email: acidjames at gmail dot com

Tuning: D#G#C#F#A#D# (1/2 step lower than standard)

Guitar : Acoustic
Album : Soundtrack

Chords :

[ X X 3 2 0 0 ]
[ X 7 5 7 0 X ]
[ X 0 10 0 0 X ]


This piece is really easy for begginers who want some nice sounding arpeggios

and add some delay and that's it


d#|---------0---------------------------------------------------------------|
A#|-------------0-----------------------------------------------------------|
F#|-----------------2-----------~silence------------------------------------|
C#|-----3-------------------------------------------------------------------|
G#|-------------------------------------------------------------------------|
D#|-------------------------------------------------------------------------|



d#|-------------------------------------------------------------------------|
A#|-----------------0-------------------------------------------------------|
F#|-------------7---------------~silence------------------------------------|
C#|---------5---------------------------------------------------------------|
G#|-----7-------------------------------------------------------------------|
D#|-------------------------------------------------------------------------|



d#|-------------------------------------------------------------------------|
A#|-------------0-----------------------------------------------------------|
F#|-----------------0-----------~silence------------------------------------|
C#|---------10--------------------------------------------------------------|
G#|-----0-------------------------------------------------------------------|
D#|-------------------------------------------------------------------------|




PS : If any of you have some other SUGIZO tabs please send them 
my email adress


| /  slide up
|   slide down
| h  hammer-on
| p  pull-off
| ~  vibrato
| +  harmonic
| x  Mute note
===============================================================================
Tap to rate this tab
# A B C D E F G H I J K L M N O P Q R S T U V W X Y Z