Guitaretab - guitar tabs
Song name
# A B C D E F G H I J K L M N O P Q R S T U V W X Y Z
Home / S / Sugizo / Ta Ta tab

Sugizo - Ta Ta tab

-------------------------------------------------------------------------------
			     Ta Ta - SUGIZO + Vivian Hsu
-------------------------------------------------------------------------------

SUGIZO Official Website : http://www.sugizo.com/
Vivian HSU Official Website : http://www.avex.com.tw/vivian/

Tabbed by: acidjames
Email: acidjames at gmail dot com

Tuning: DGCFAD

Guitar : Acoustic

Chords :

[ X 3 5 5 0 X ]
[ X 0 5 5 0 X ]
[ 1 X 3 2 X 0 ]
[ 3 X 5 5 0 X ]
[ X 0 2 2 1 X ]
[ 4 0 2 2 1 X ]


A beautiful acoustic piece by SUGIZO with Vivian Hsu.

This song is extremely easy and has some nice peaceful picked chords.

Vivian Hsu voice fits perfectly with the acoustic guitar played by SUGIZO.

Add a little bit of a good old reverb and you have the sound of the original track.



time~0:10

d|----------------------------------------------------------------------------|
A|-------------0--------------------------------0-----------------------------|
F|-----------------5-------------------------------5--------------------------|
C|---------5--------------------------------5---------------------------------|
G|-----3-------------------------------3--------------------------------------|
D|----------------------------------------------------------------------------|



d|----------------------------------------------------------------------------|
A|-------------0--------------------------------0-----------------------------|
F|-----------------5-------------------------------5--------------------------|
C|---------5--------------------------------5---------------------------------|
G|-----0-------------------------------0--------------------------------------|
D|----------------------------------------------------------------------------|



d|-------------0--------------------------------------------------------------|
A|---------------------------------------------------0------------------------|
F|-----------------2----------------------------5-----------------------------|
C|---------3--------------------------------5---------------------------------|
G|----------------------------------------------------------------------------|
D|-----1-------------------------------3--------------------------------------|


[ Tab from: http://www.guitaretab.com/s/sugizo/74653.html ]
d|----------------------------------------------------------------------------|
A|-------------0--------------0-----------------------------------------------|
F|-----------------5-------------5--------------------------------------------|
C|---------5---------------5--------------------------------------------------|
G|-----3----------------------------------------------------------------------|
D|----------------------------------------------------------------------------|


time~1:02


                        ~con rubato                      ~con rubato	
d|-------------------------------------------------------------------------|
A|---------------0--------1-0-----------------------0------1-0-------------|
F|-----------------------2-----2--------------------------2----2-----------|
C|---------2------------2---------2------------2---------2-------2---------|
G|-----0---------------0-------------0------------------0----------0-------|
D|-------------------------------------------3-----------------------------|
                                             (pinkie)
			

d|-------------0--------------------------------------------------------------|
A|---------------------------------------------------0------------------------|
F|-----------------2----------------------------5-----------------------------|
C|---------3--------------------------------5---------------------------------|
G|----------------------------------------------------------------------------|
D|-----1-------------------------------3--------------------------------------|



time~1:32


d|-----------------0-------------------------------------------------0--------|
A|-------------0------0-------------0h1------------0h1------------------------|
F|---------------------------------------2--------------2---------------2-----|
C|---------5--------------------2---------------2----------------3------------|
G|---------------------------0------------------------------------------------|
D|-----0--------------------------------------3--------------1----------------|


then strum  chords [ 3 0 2 2 1 X ] and [ 3 0 2 2 1 X ] once


And that's it !



===============================================================================
| /  slide up
|   slide down
| h  hammer-on
| p  pull-off
| ~  vibrato
| +  harmonic
| x  Mute note
===============================================================================
Related for Ta Ta tab