Guitaretab - guitar tabs
Song name
# A B C D E F G H I J K L M N O P Q R S T U V W X Y Z

Sui Generis - Confesiones De Invierno tab

E|------2h3p2---------2h3p2---------------------|
B|----3------3------3------3--------------------|
G|--2--2-------2---2-2-------2--------0------0--|
D|-0--------------0-----------------0------0----|
A|-------------------------------0h3---0h2------|
E|----------------------------------------------|

E|------2h3p2-----------2h3p2-------------------|
B|----3------3-------3--------3-----------------|
G|--2--2-------2---2---2-------2--------0------0|
D|-0--------------0-----------------0------0----|
A|-------------------------------0h3---0h2------|
E|----------------------------------------------|


E|-----2h3p2----------2h3p2-2--| FIN
B|---3------3-------3----------|
G|--2-2-------2---2-2----------|  DE
D|-0--------------0------------|
A|-----------------------------| INTRO
E|-----------------------------|

D                        G  D     C          G A7 D
Me echo de su cuarto gritándome: 'No tienes profesión'
                            G    D    C     G       A7   D
Tuve que enfrentarme a mi condición, en invierno no hay sol
G                                D    C                 A7   D
Y aunque digan que va a ser muy fácil es muy duro poder mejorar
G                          D       Em7                     A7 
Hace frío y me falta un abrigo y me pesa el hambre de esperar
[ Tab from: http://www.guitaretab.com/s/sui-generis/187129.html ]
D                    G      D  C          G A7  D
Quien me dar  algo para fumar o casa en que vivir
                           G     D   C   G   A7     D
Se que entre las calles debes estar pero no se partir
G                           D    C              A7     D
Y la radio nos confunde a todos, sin dinero la pasare mal
G                         D       Em7                 A7   D
Si se comen mi carne los lobos no podré robarles la mitad

D                        G     D   C      G A7  D
Dios es empleado en un mostrador: da para recibir
D                         G    D    C       G A7 D
Quien me dar  un crédito mi Señor, sólo se sonreír
G                       D    C                 A7     D
Y tal vez espere demasiado, quisiera que estuvieras aquí
G                               D      Em7                       A7
Cerraran las puertas de este infierno y es posible que me quiera ir

D                      G     D   C      G   A7     D
Conseguí licor y me emborrache, en el baño de un bar
                            G    D  C       G  A7   D
Fui a dar a la calle de un puntapié y me sentí muy mal
G                            D    C                   A7   D
Y si bien yo nunca había bebido en la cárcel tuve que acabar
G                       D   Em7                      A7 
La fianza la pago un amigo, las heridas son del oficial
D                       G    D  C        G  A7  D
Hace cuatro años que estoy aquí y no quiero salir
                   G     D   C         G   A7    D
Ya no paso frío y soy feliz, mi cuarto da al jardín
G                                D    C                A7    D
Y aunque a veces me acuerdo de ella, dibuje su cara en la pared
G                          D        Em7         A7     D 
Solamente muero los domingos y los lunes ya me siento bien

E|-2--2--2--2--3--3--3--3-----2-----------------||
B|--3--3--3--3--1--1--0--0----3-(arpegiado)-----||
G|----------------------------2-----------------||   FIN
D|----------------------------0-----------------||
A|----------------------------------------------||
E|----------------------------------------------|
Related for Confesiones De Invierno tab