Song name
# A B C D E F G H I J K L M N O P Q R S T U V W X Y Z

Suicidal Chicken Head - I Dont Want To See Ya tab

     -=[ Cifra de I don't want to see you ]=-

 By: Busato                WWW.SCHBAND.HPG.COM.BR

Sem Distorção ( 4 x )
Guitarra 1

|----0--0---0--0---0--0----------|
|----1--1---1--1---1--1---1--1---|
|----2--2---2--2---0--0---0--0---|
|----2--2---3--3---2--2---0--0---|
|----0--0----------3--3---2--2---|
|------------------0--0---3--3---|

O resto da música é tudo igual
Com Distorção

|--------------------------------------|
|--------------------------------------|
|--------------------5--5--------------|
|----7--7----3--3----5--5----5--5------|
|----7--7----3--3----3--3----5--5------|
|----5--5----1--1------------3--3------|

Tem umas oitavadas entre as estrofes
Guitarra 1

|---------------------------------------------|
|---------------------------------------------|
|----14--14---10--10-------------12--12-------|
|------------------------10--10---------------|
|----12--12----8---8-------------10--10-------|
|-------------------------8---8---------------|

WWW.SCHBAND.HPG.COM.BR
Tap to rate this tab
# A B C D E F G H I J K L M N O P Q R S T U V W X Y Z