Song name
# A B C D E F G H I J K L M N O P Q R S T U V W X Y Z

Suicidal Chicken Head - Ska tab

                       -=[ Cifra de O Ska ]=-

By: Sansão, Maggi, Busato, Tiago, Gustavo      WWW.SCHBAND.HPG.COM.BR

A música fica basicamente assim, só no refrão que muda!

e|---7-------7-------5-------5------------|
b|---8-------9-------6-------7------------|
g|---9-------9-------7-------7------------|
d|---9-------9-------7-------7------------|
a|---7-------7-------5-------5------------|
e|---7-------7-------5-------5------------|

So refrão fica assim!

e|------------------------------------|
b|------------------------------------|
g|---------7-----5-----7--------------|
d|---5-----7-----5-----7--------------|
a|---5-----5-----3-----5--------------|
e|---3--------------------------------|


WWW.SCHBAND.HPG.COM.BR
Tap to rate this tab
# A B C D E F G H I J K L M N O P Q R S T U V W X Y Z