Song name
# A B C D E F G H I J K L M N O P Q R S T U V W X Y Z

Suicidal Chicken Head - We Have To Fight tab

Suicidal Chicken Head
We Have To Fight

e|---------------------------------------------------------------------------| 
B|---------------------------------------------------------------------------| 
G|-----------------------------7--7--7--7------------------------------------| 
D|---4--4--4--4---7--7--7--7---7--7--7--7---2--2--2--2-----------------------| 
A|---4--4--4--4---7--7--7--7---5--5--5--5---2--2--2--2-----------------------| 
E|---2--2--2--2---5--5--5--5----------------0--0--0--0-----------------------| 

e|---------------------------------------------------------------------------| 
B|---------------------------------------------------------------------------| 
G|----------------7--7--7--7---9--9--9--9------------------------------------| 
D|---4--4--4--4---7--7--7--7---9--9--9--9---7--7--6--6-----------------------| 
A|---4--4--4--4---5--5--5--5---7--7--7--7---7--7--6--6-----------------------| 
E|---2--2--2--2-----------------------------5--5--4--4-----------------------| 

e|---------------------------------------------------------------------------| 
B|---------------------------------------------------------------------------| 
G|---6--6--6--6---7--7--7--7---9--9--9--9---14--14--13--13-------------------| 
D|---------------------------------------------------------------------------| 
A|---4--4--4--4---5--5--5--5---7--7--7--7---12--12--11--11-------------------| 
E|---------------------------------------------------------------------------|
 
www.schband.kit.net
Tap to rate this tab
# A B C D E F G H I J K L M N O P Q R S T U V W X Y Z